Oops, an error
Loading. Please wait.

Call Me bass

by NEIKED
307 views 6 this week
no commentswrite comment
1 2 3 4 5
3 more votes to show rating
add to favorites
×
Save as Personal and add changes to this tab that will be seen only by you. Learn more ›
×
You can save this tab as Personal to edit and correct it or add notes. All changes will be seen only by you. Learn more »
launch autoscroll
font size
0
reset
guitar tuner
edit
Autoscroll
slow
fast
+/-
esc
set tempo
stop
NEIKED - Call Me
Tabbed by camrhyswebb, please comment for feedback!

[Verse]
G|-----------------------|
D|-----------------------|
A|-----------------------|
E|-0-3-5-5-5--5-9-7-7-7--| x6

[Pre-Chorus]
G|-------------|
D|-------------|
A|-------------|
E|---5-5--5-5--| x8

[Chorus]
G|-----------------------|
D|-----------------------|
A|-----------------------|
E|-0-3-5-5-5--5-9-7-7-7--| x2

[Verse]
G|-----------------------|
D|-----------------------|
A|-----------------------|
E|-0-3-5-5-5--5-9-7-7-7--| x6

[Pre-Chorus]
G|-------------|
D|-------------|
A|-------------|
E|---5-5--5-5--| x8

[Chorus]
G|-----------------------|
D|-----------------------|
A|-----------------------|
E|-0-3-5-5-5--5-9-7-7-7--| x4

[Bridge]
G|-------------|
D|-------------|
A|-------------|
E|---5-5--5-5--| x7

[rest for one bar]

[Chorus]
G|-----------------------|
D|-----------------------|
A|-----------------------|
E|-0-3-5-5-5--5-9-7-7-7--| x4

[Outro]
G|-----------------------|
D|-----------------------|
A|-----------------------|
E|-0-3-5-5-5--5-9-7-7-7--| x4

            
            
Suggest correction
Creating personal tab
Creating personal tab
You can edit any tab online and save it as your Personal.

You can edit, replace or remove any tab part or add personal notes – all changes will be seen only by you.

Personal tabs can be accessed anytime from any device, even offline.
Learn more »
Give kudos to tab author, rate the tab!
1 2 3 4 5
comments
print report bad tab
guest
You may want to rate the tab now too:
select rating
Wanna post a correction for this tab? Suggest correction