Oops, an error
Loading. Please wait.

Sexual Bass

5,419 views 123 this week
3 commentsread comments
1 2 3 4 5
x 5
add to favorites
launch autoscroll
font size
0
reset
guitar tuner
×
Best way to learn
"Sexual"
Autoscroll
slow
fast
+/-
esc
set tempo
stop
Author
Difficulty
Tuning
  follow
novice
D A D G
About this tab version
This tab is the first bass tab for this song, nothing else exists online. Was this info helpful? Yes No
NEIKED - Sexual
Tabbed by camrhyswebb, please comment for feedback!

*Tuned in Drop D*

[Pre-chorus] (0.26)
G|----------------------|---------------|
D|----------------------|---------------|
A|----------------------|---------------|
D|-5-------9--7---------|--0-------4--5-| x2

[Chorus] (0.44)
G|----------------------|------------------------|
D|----------------------|------------------------|
A|----------------------|------------------------|
D|-5--5-5--9--7-7--7-7--|--0--0-0--4/5--5-5--5-5-| x2

[Verse] (1.02)
G|----------------------|------------------------|
D|----------------------|------------------------|
A|----------------------|------------------------|
D|-5--5-5--9--7-7--7-7--|--0--0-0--4/5--5-5--5-5-| x2

[Pre-chorus] (1.20)
G|----------------------|----------------|
D|----------------------|----------------|
A|----------------------|----------------|
D|-5-------9--7---------|---0-------4--5-| x2

[Chorus] (1.37)
G|----------------------|------------------------|
D|----------------------|------------------------|
A|----------------------|------------------------|
D|-5--5-5--9--7-7--7-7--|--0--0-0--4/5--5-5--5-5-| x2

[Instrumental] (1.55)
G|----------------------|------------------------|
D|----------------------|------------------------|
A|----------------------|------------------------|
D|-5--5-5--9--7-7--7-7--|--0--0-0--4/5--5-5--5-5-| x2

[Bridge]
*rest*

[Chorus] (2.30)
G|----------------------|------------------------|
D|----------------------|------------------------|
A|----------------------|------------------------|
D|-5--5-5--9--7-7--7-7--|--0--0-0--4/5--5-5--5-5-| x2

[Outro] (2.48)
G|----------------------|------------------------|
D|----------------------|------------------------|
A|----------------------|------------------------|
D|-5--5-5--9--7-7--7-7--|--0--0-0--4/5--5-5--5-5-| x2

************************************

| /  Slide up

************************************
Suggest correction
comments
print report bad tab
3 comments total.
+2 reply
bjarneks 10 Nov 22, 2016 01:05 PM

The number "3" should be replaced with "4".

0 reply
tamig007 10 Apr 20, 2017 07:54 AM

I take it the author has updated the tab as no 3s are there now?

guest
You may want to rate the tab now too:
select rating
Wanna post a correction for this tab? Suggest correction