Oops, an error
Loading. Please wait.

Sexual Bass Tab

1,807 views 417 this week
1 commentread comment
1 2 3 4 5
x 4
add to favorites
launch autoscroll
font size
0
reset
guitar tuner
Autoscroll
slow
fast
+/-
esc
set tempo
stop
Help us to improve Ultimate-Guitar.com Take our survey!
×
Author
Difficulty
Tuning
novice
D A D G B E
About this tab version
This tab is the first bass tab for this song, nothing else exists online. Was this info helpful? Yes No
NEIKED - Sexual
Tabbed by camrhyswebb, please comment for feedback!

*Tuned in Drop D*

[Pre-chorus] (0.26)
G|----------------------|---------------|
D|----------------------|---------------|
A|----------------------|---------------|
D|-5-------9--7---------|--0-------3--5-| x2

[Chorus] (0.44)
G|----------------------|------------------------|
D|----------------------|------------------------|
A|----------------------|------------------------|
D|-5--5-5--9--7-7--7-7--|--0--0-0--3/5--5-5--5-5-| x2

[Verse] (1.02)
G|----------------------|------------------------|
D|----------------------|------------------------|
A|----------------------|------------------------|
D|-5--5-5--9--7-7--7-7--|--0--0-0--3/5--5-5--5-5-| x2

[Pre-chorus] (1.20)
G|----------------------|----------------|
D|----------------------|----------------|
A|----------------------|----------------|
D|-5-------9--7---------|---0-------3--5-| x2

[Chorus] (1.37)
G|----------------------|------------------------|
D|----------------------|------------------------|
A|----------------------|------------------------|
D|-5--5-5--9--7-7--7-7--|--0--0-0--3/5--5-5--5-5-| x2

[Instrumental] (1.55)
G|----------------------|------------------------|
D|----------------------|------------------------|
A|----------------------|------------------------|
D|-5--5-5--9--7-7--7-7--|--0--0-0--3/5--5-5--5-5-| x2

[Bridge]
*rest*

[Chorus] (2.30)
G|----------------------|------------------------|
D|----------------------|------------------------|
A|----------------------|------------------------|
D|-5--5-5--9--7-7--7-7--|--0--0-0--3/5--5-5--5-5-| x2

[Outro] (2.48)
G|----------------------|------------------------|
D|----------------------|------------------------|
A|----------------------|------------------------|
D|-5--5-5--9--7-7--7-7--|--0--0-0--3/5--5-5--5-5-| x2

************************************

| /  Slide up

************************************
Suggest correction
comments
print report bad tab
1 comment total.
0 reply
bjarneks 10 Nov 22, 2016 06:05 PM

The number "3" should be replaced with "4".

guest
You may want to rate the tab now too:
select rating
Wanna post a correction for this tab? Suggest correction