Oops, an error
Loading. Please wait.

Sexual tab

by NEIKED
976 views 21 this week
no commentswrite comment
1 2 3 4 5
3 more votes to show rating
add to favorites
×
Save as Personal and add changes to this tab that will be seen only by you. Learn more ›
×
You can save this tab as Personal to edit and correct it or add notes. All changes will be seen only by you. Learn more »
launch autoscroll
font size
0
reset
how to read this tab
guitar tuner
edit
Autoscroll
slow
fast
+/-
esc
set tempo
stop
About this tab version
Includes Electronic / synth parts and finger-picked chord variations. Was this info helpful? Yes No
                      NEIKED -SEXUAL
-------------------------------------------------------

Tabbed by: Ryan 'Titch' Varesi

As usual, I play a lot of these pop tunes in a rock style, but it's pretty much  true to the original.
Enjoy.

Drop D Tuning (although can be played in standard)
DADGBe

(Chords - repeated throughout the song)

G    B  A    D   F#m G

Strumming pattern for rhythm

d  x d d    d  x d d    -- downstrokes


[INTRO] -- Can use a pitch or wah effect herefor a nicer sound.

e|--10--------------10-----------|
B|--13b15---18b20---13b15--------|
G|-------------------------------|
D|-------------------------------|
A|-------------------------------|
D|-------------------------------| x2 (And wherever you hear it)



[VERSE]

G                 Bm    A          
You got that thing that I been looking for
  D                             F#m 
Been running around for so long
    G
Now I caught you, I won't let you go
G                 Bm    A
You got that thing that I been looking for
        D                        F#m 
And you got a heart full of gold
    G
And that's really turning me on


***You can also fingerpick these chord variations to simulate the keyboard.

e|---------7---5---------------------| Carry this on into the PRE CHORUS too
B|---8-----x---x-----7-----7---8-----|
G|---7-----7---7-----7-----6---7-----|
D|---5---------------0-----4---5-----|
A|-----------------------------------|
D|-----------------------------------|


[PRE CHORUS]

G                   Bm    A
   You are, you are, you are, you are, you are
D                    F#m       G
   Everything that I dreamed of, now we can paint a picture
G                   Bm    A
   You are, you are, you are, you are, you are
D                       F#m   G
   Making my life much greener, so I wanna say 



[CHORUS]

-- High bass, slightly palm muted or chugged.


   Just say you feel the way that I feel
     G                B   A
e|----------------------------------------------|
B|----------------------------------------------|
G|----------------------------------------------|
D|---5---x--5--5----9---7-7-7--x--7--7----------|
A|---5---x--5--5----9---7-7-7--x--7--7----------|
D|---5---x--5--5----9---7-7-7--x--7--7----11//--|

    I'm feeling sexual, so we should be sexual
     D               F#m  G
e|--------------------------------------------|
B|--------------------------------------------|
G|--------------------------------------------|
D|---0---x--7--7----4---5-5-5--x--5--5--------|
A|---0---x--5--5----4---5-5-5--x--5--5--------|
D|---0---x--0--0----4---5-5-5--x--5--5--------|        x2



[VERSE]

G                Bm    A
You got something that I ain't seen before
       D                      F#m 
You've opened a million doors
          G
All I can say is I adore you
G                Bm    A
You got something that I ain't seen before
D                             F#m 
Hold me cause baby, I'm yours
       G
Oh, I can't wait until we get home


e|---------7---5---------------------|
B|---8-----x---x-----7-----7---8-----|
G|---7-----7---7-----7-----6---7-----|
D|---5---------------0-----4---5-----|
A|-----------------------------------|
D|-----------------------------------| 



[PRE CHORUS]

G                   Bm    A
   You are, you are, you are, you are, you are
D                    F#m       G
   Everything that I dreamed of, now we can paint a picture
G                   Bm    A
   You are, you are, you are, you are, you are
D                       F#m   G
   Making my life much greener, so I wanna say 



[CHORUS]
 
-- High bass, slightly palm muted or chugged.


   Just say you feel the way that I feel
     G                B   A
e|----------------------------------------------|
B|----------------------------------------------|
G|----------------------------------------------|
D|---5---x--5--5----9---7-7-7--x--7--7----------|
A|---5---x--5--5----9---7-7-7--x--7--7----------|
D|---5---x--5--5----9---7-7-7--x--7--7----11//--|

    I'm feeling sexual, so we should be sexual
     D               F#m  G
e|--------------------------------------------|
B|--------------------------------------------|
G|--------------------------------------------|
D|---0---x--7--7----4---5-5-5--x--5--5--------|
A|---0---x--5--5----4---5-5-5--x--5--5--------|
D|---0---x--0--0----4---5-5-5--x--5--5--------|        x2



[ELECTRONIC RIFF]

***Same chords repeated throughout

e|---17b19r17--17b19--------------17b19r17-17-17b19---------------|
B|-------------------17-15--------------------------17-15---------|
G|-------------------------16-----------------------------16------|
D|----------------------------------------------------------------|
A|----------------------------------------------------------------|
D|----------------------------------------------------------------|

e|-------------------------------------------------------------------|
B|---17b19-17-15-17-15-------17b19r17-15-17b19-17-15-17-15-----------|
G|---------------------16----------------------------------16-19-----|
D|-------------------------------------------------------------------|
A|-------------------------------------------------------------------|
D|-------------------------------------------------------------------| x2


***For a nice melody, play this 12 frets lower (on the same strings). Same pattern



[BRIDGE]

  G                      Bm    A                   D       F#m   G
I don't know what you done but I can't get enough


e|---------------------------------------------------------|
B|---19-17-15-17-15-------19-17-15--19-17-15-17-15---------|
G|------------------16-----------------------------16------|
D|---------------------------------------------------------|
A|---------------------------------------------------------|
D|---------------------------------------------------------| 



      G                    Bm   A                    D       F#m   G
Cause you give me that rush, I don't want it to stop


e|---------------------------------------------------------|
B|---19-17-15-17-15-------19-17-15--19-17-15-17-15---------|
G|------------------16-----------------------------16------|
D|---------------------------------------------------------|
A|---------------------------------------------------------|
D|---------------------------------------------------------| 



[FINAL CHORUS]

-- High bass, slightly palm muted or chugged.


   Just say you feel the way that I feel
     G                B   A
e|----------------------------------------------|
B|----------------------------------------------|
G|----------------------------------------------|
D|---5---x--5--5----9---7-7-7--x--7--7----------|
A|---5---x--5--5----9---7-7-7--x--7--7----------|
D|---5---x--5--5----9---7-7-7--x--7--7----11//--|

    I'm feeling sexual, so we should be sexual
     D               F#m  G
e|--------------------------------------------|
B|--------------------------------------------|
G|--------------------------------------------|
D|---0---x--7--7----4---5-5-5--x--5--5--------|
A|---0---x--5--5----4---5-5-5--x--5--5--------|
D|---0---x--0--0----4---5-5-5--x--5--5--------|        x2


[ELECTRONIC RIFF OUTRO]


e|---17b19r17--17b19--------------17b19r17-17-17b19---------------|
B|-------------------17-15--------------------------17-15---------|
G|-------------------------16-----------------------------16------|
D|----------------------------------------------------------------|
A|----------------------------------------------------------------|
D|----------------------------------------------------------------|

e|-------------------------------------------------------------------|
B|---17b19-17-15-17-15-------17b19r17-15-17b19-17-15-17-15-----------|
G|---------------------16----------------------------------16-19-----|
D|-------------------------------------------------------------------|
A|-------------------------------------------------------------------|
D|-------------------------------------------------------------------| x2



************************************

| x   Dead note
| h   Hammer-on
| p   Pull-off
| r   Release
| b   Bend
| /   Slide up
| \   Slide down


************************************

            
            
Suggest correction
Creating personal tab
Creating personal tab
You can edit any tab online and save it as your Personal.

You can edit, replace or remove any tab part or add personal notes – all changes will be seen only by you.

Personal tabs can be accessed anytime from any device, even offline.
Learn more »
Give kudos to tab author, rate the tab!
1 2 3 4 5
comments
print report bad tab
guest
You may want to rate the tab now too:
select rating
Wanna post a correction for this tab? Suggest correction