Oops, an error
Loading. Please wait.
We have Chord Pro version of Sweet Caroline.
It's the closest thing you can get to the original song and it has interactive parts. Check out the tab »
×

Sweet Caroline chords

version 7
version 7

Whole song

Interactive

Video

1,861 views 30 this week
no commentswrite comment
1 2 3 4 5
x 3
add to favorites
×
Save as Personal and add changes to this tab that will be seen only by you. Learn more ›
×
You can save this tab as Personal to edit and correct it or add notes. All changes will be seen only by you. Learn more »
launch autoscroll
font size
0
reset
transpose
0
reset
simplify chords
display chords
guitar tuner
edit
Autoscroll
slow
fast
+/-
esc
set tempo
stop
About this tab version
The 5 star rated version has an Fm in the pre-chorus, it should be an A6. Additionally I've also added the intro tab with the base line for single guitar performance. Was this info helpful? Yes No
Strumming
There is no strumming pattern for this song yet. and get +5 IQ
Sweet Caroline - Neil Diamond


CAPO 2nd FRET

CHORDS USED
===========
      A    D    E    A6   Bm  C#m
e-|---0----2----0----2----2----4----
B-|---2----3----0----2----3----5----
G-|---2----2----1----2----4----6----
D-|---2----0----2----2----4----6----
A-|---0---------2----0----2----4----
E-|-------------0-------------------
 
INTRO TAB
=========

e-|---------------------------------------------------|-
B-|---------------------------------------------------|-
G-|---------------------------------------------------|-
D-|---------------------------------------------------|-
A-|---2--4--5-------2--4--5--4--2-------5--4--2-------|-
E-|--(0)-----------------(0)--------------------------|-

 -|---------------------------------------------------|-
 -|---------------------------------------------------|-
 -|---------------------------------------------------|-
 -|---------------------------------------------------|-
 -|---5--7--9-------5--7--9--7--5-------9--7--5-------|-
 -|--(0)-----------------(0)--------------------------|-

 -|---------------------------------------------------||
 -|---------------------------------------------------||
 -|---------------------------------------------------||
 -|---------------------------------------11----9-----||
 -|---9--11--12-------9--11--12-----11----------------||
 -|--(0)--------------------(0)-----------------------||




A               D
Where it began, I can't begin to knowin'
A                            E
But then I know it's growing strong

A                 D
Was in the spring, And spring became the summer
A                              E
Who'd have believed you'd come along.

A               A6
Hands, touchin' hands
         E             D            A 
Reachin' out, touchin' me, touchin' you

A               D/A/D                      E  
Sweet Caroline, Good times never seemed so good
A                   D/A/D                  E  
I've been inclined, To believe they never would 
D   C#m  Bm
But now I...

A                  D
Look at the night, And it don't seem so lonely
A                       E
We fill it up with only two.

A                D
And when I hurt, Hurtin' runs off my shoulders
A                           E
How can I hurt when holding you?

A              A6 
Warm, touchin' warm
         E             D            A 
Reachin' out, touchin' me, touchin' you
A               D/A/D                      E  
Sweet Caroline, Good times never seemed so good
A                   D/A/D                  E  
I've been inclined, To believe they never would 
D   C#m  Bm
Oh, no, no

A               D/A/D                      E 
Sweet Caroline, Good times never seemed so good
A               D                    E
Sweet Caroline, I believe they never could
A               D/A/D                      E 
Sweet Caroline, Good times never seemed so good
E     A  E   A 
Sweet Caroline...

            
            
Suggest correction
Creating personal tab
Creating personal tab
You can edit any tab online and save it as your Personal.

You can edit, replace or remove any tab part or add personal notes – all changes will be seen only by you.

Personal tabs can be accessed anytime from any device, even offline.
Learn more »
Give kudos to tab author, rate the tab!
1 2 3 4 5
comments
print report bad tab
guest
You may want to rate the tab now too:
select rating
Wanna post a correction for this tab? Suggest correction