Oops, an error
Loading. Please wait.

Home For The Season Chords

904 views 1 this week
no commentswrite comment
1 2 3 4 5
please rate
add to favorites
launch autoscroll
font size
0
reset
transpose
0
reset
simplify chords
display chords
guitar tuner
Autoscroll
slow
fast
+/-
esc
set tempo
stop
Help us to improve Ultimate-Guitar.com Take our survey!
×
Author
Capo
2nd fret
HOME FOR THE SEASON - Neil Halstead

Tuning: Standard, Capo 2

Chords used:

      C     C/G     Am      G      Gsus4     Fmaj9
f#|---0------0-------0------3-------3----------0------------------------------|
 C|---1------1-------1------0-------1----------1------------------------------|
 A|---0------0-------2------0-------0----------0------------------------------|
 E|---2------2-------2------0-------0----------3------------------------------|
 B|---3------3-------0------2-------2----------3------------------------------|
F#|---x------3-------x------3-------3----------1------------------------------|

Intro: C Am-C Am-C Am-G x 2
Listen to the song to get the picking right. The main melody and bass is tabbed out below:


      C             Am - C     Am - C     Am - G
e|-0--0----------------------------------------------------------------------|
B|---------3p1------0h1--------0h1--------0h1--------------------------------|
G|---------------------------------------------------------------------------|
D|---------------------------------------------------------------------------|
A|-3--3-------------0-----3----0-----3----0----------------------------------|
E|-----------------------------------------------3---------------------------|

       C            Am - C     Am - C     Am - G
e|-3---0---------------------------------------------------------------------|
B|---------3p1------0h1--------0h1--------0h1--------------------------------|
G|---------------------------------------------------------------------------|
D|---------------------------------------------------------------------------|
A|-3---3------------0-----3----0-----3----0----------------------------------|
E|-----------------------------------------------3---------------------------|

C/G       Am            C/G
Guess I'm home for the season
C/G     Am          C/G       G (hammer on Gsus4)
Got no reason just thinking about you
C/G      Am          C/G        Fmaj9
Stayin alone there's nothing to do
C/G           Am         C/G         Fmaj9
Just want to talk and I wondered if you're home

Am         G        Am        Fmaj9
Past is a different person to me
Am             G      Am          Fmaj9
See all these shadows walking with me
C             Am       C/G      (C)
Christmas my sister do you see me?
C        Am           C/G          
One ran away, do you recognize me? 
C        Am           C/G
One ran away, do you recognize me?

Singing songs out on May Square
There's holly and ivy out on the doorstep
I'm coming home but I feel so alone
I never did do all the things I said I would

Past is a different person to me
See all these shadows walking with me
Christmas my sister do you see me?
One ran away, do you recognize me? 
One ran away, do you recognize me?

Guess I'm home for the season
Got no reason just thinking about you
Stayin alone there's nothing to do
Just want to talk and I wondered if you're home


*************************************************

Please feel free to correct the lyrics! 
Suggest correction
Give kudos to tab author, rate the tab!
1 2 3 4 5
comments
print report bad tab
guest
You may want to rate the tab now too:
select rating
Please do not post tabs as comments. Select "correction" instead!