Oops, an error
Loading. Please wait.

Cinnamon Girl Tab

version 1
version 1

Interactive

40,956 views 66 this week
4 commentsread comments
1 2 3 4 5
accurate
x 7
add to favorites
launch autoscroll
font size
0
reset
how to read this tab
guitar tuner
Autoscroll
slow
fast
+/-
esc
set tempo
stop
Help us to improve Ultimate-Guitar.com Take our survey!
×
Author
Difficulty
intermediate
---------------------------------
                             Cinnamon Girl – Neil Young
-------------------------------------------------------------------------------
Tabbed by: lbc_sublime
Email:

Tuning: double drop d tuning(both high and low E dimished 1 whole tone)

DBGDAD  4/4 time signature

INTRO

    C5 D5                      F5   G5
D|-------------------------------------------------|
B|-------------------------------------------------|
G|--5--7--7--7-------------------------------------|
D|--5--7--7--7----0--------------------------------|
A|-------------------3--2--0----3----5-------------|
D|------------------------------3----5-------------|

    C5 D5                       F5                 F5
D|-------------------------------------------------------|
B|-------------------------------------------------------|
G|--5--7--7--7-----------------------0-------------------|
D|--5--7--7--7----0------------------0-------------------|
A|-------------------3--2--0----3---------3--2--0--3----0|
D|------------------------------3------------------3-----|

VERSE
    D5                   Am7                   Cadd9
D|-----------0--------------------0---------------------0-|
B|--------3-------3------------1--------1-----------------|
G|-----2-------------2------0---------------0--------0----|
D|--0--------------------2------------------------2-------|
A|---------------------------------------------3----------|
D|--------------------------------------------------------|
I wan-na live with a cinnamon girl            I can be hap-
2.10 silver saxes a bass with a bow         the drummer rel

           G                        F5 G5 D5  C  D
D|--------------------0--------------------------------|
B|-1-----------------------3------------------5--7-----|
G|----0------------0--------------------------5--7-----|
D|-------------0----------------0-------------5--7--0--|
A|---------2-------------------------3--5--0-----------|
D|-----------------------------------3--5--0-----------|
   py the rest of my life--   with a cinnamon girl
ax-es and waits between shows  for his cinimon girl


          C  G  C  Am

D|----------------------0----------------------------------|
B|--3-----1--0--1-----------1------------------------------|
G|--2-----0--0--0--2------------0--------------------------|
D|-----0--2--0--2--2---------------------------------------|
A|-----------------0---------------------------------------|
D|---------------------------------------------------------|


D5                          Am7                    Cadd9

Dream-er of pic – tures   I run in the night  you see us

          G                         F5    G5   D5  C    D

together chasing the moonlight   my cin – na - mon girl


C  G  C  Am A5

^ This is just the chords they strum as the continuation after D at the end of the 
still playing these chords but not singing with it

Bridge
LET RING

    C
D|----5---------------------5----------------------|
B|--5----5---------------5-----5-----------5-------|
G|----------5-----5---------------5-----5----------|
D|-------------5---------------------5-------------|
A|-------------------------------------------------|
D|-------------------------------------------------|

Ma send me money now     I’m gonna make it somehow


                                  Gm
D|-----5--------------------------5------5--5----5---|
B|--5-----5-----------5-----------3------3--3----3---|
G|-----------5-----5--------------3------3--3----3---|
D|--------------5-----------------5------5--5----5---|
A|---------------------------------------------------|
D|---------------------------------------------------|
  I need another chance                          you


                                      A5
D|----5------5----5---5------------------------------|
B|----3------3----3---3------------------------------|
G|----3------3----3---3------------------------------|
D|----5------5----5---5---------------2--2--2--2--2--|
A|------------------------------------0--0--0--0--0--|
D|---------------------------------------------------|
 See  my  ba by loves  to dance               Yeah

D|-------------------------------0----0--------------|
B|----------------------3----3---3----3--------------|
G|-------------2--2--2--2----0-----------------------|
D|--2--2--2----2--2--2--2----0--------2--------------|
A|--0--0--0----0--0--0-------------------------------|
D|---------------------------------------------------|
        Yeah           Yeah

SOLO

Gtr 1

    D5                   Am7                     Cadd9
D|--0--0--0--0----0---0--0--0--0--------0--0--0--0--0-|
B|--7--7--7--7----7---7--5--3--1--3--------------3--3-|
G|--------------------------------2-------------------|
D|----------------------------------------------------|
A|----------------------------------------------------|
D|----------------------------------------------------|

                      G                  F5 G5 D5 C  D
D|--0--0----0---0--0------0--0--0----0--0--------------|
B|--3--3----3---3--3------3--3--3----1--0---------5--7-|
G|-----------------2Ls3---------------------------5--7-|
D|------------------------------------------------5--7-|
A|-----------------------------------------3-5-0-------|
D|-----------------------------------------3-5-0-------|

             C  G  C  Am             D5
D|----------------------------0--0---0--0--0--0----0--0|
B|-----3-----1--0--1--1----1---------7--7--7--7----7--7|
G|-----2-----0--0--0--2--------------------------------|
D|--x--0--0--2--0--2--2--------------------------------|
A|--x--------------------------------------------------|
D|-----------------------------------------------------|

   Am7                       Cadd9                 G
D|--0--0---0----------0--0---0--0--0--0----0--0----0-|
B|--5--3---1--3----1---------3--3--3--3----3--3----3-|
G|------------2----2---------------------------------|
D|---------------------------------------------------|
A|---------------------------------------------------|
D|---------------------------------------------------|

                    F5 G5 D5  C  D           C  G  G  Am
D|--0--0--0----0--0-------------------------------------|
B|--3--3--3----1--0-----------5--7-----3-----1--0--1--1-|
G|----------------------------5--7-----2-----0--0--0--2-|
D|----------------------------5--7-----0--0--2--0--2--2-|
A|-------------------3--5--0--------x-------------------|
D|-------------------3--5--0--------x-------------------|


D|--0---------------------------------------------------|
B|-----1------------------------------------------------|
G|------------------------------------------------------|
D|----------0-------------------------------------------|
A|------------------------------------------------------|
D|------------------------------------------------------|


Gtr 2

    C   d
D|---------------------------------------------------|
B|--5---7---7-----7----------------------------------|
G|--5---7---7-----7----------------------------------|
D|--5---7---7-----7----------------------------------|
A|------------0-----0--------------------------------|
D|------------0-----0--------------------------------|
                       Guitar 2 rest for 8 beats

D|---------------------------------------------------|
B|---------------3----3—(3)--------------------------|
G|-------2--2----2h3--2-(2)--2----2-------2----------|
D|--0----0--0h3--------------0h3--0--0----0----0-----|
A|--0h3------------------------------0h3-------0h3---|
D|---------------------------------------------------|

D|--------------------------------------------------|
B|--------------------------3----3-------3----------|
G|--2----2---------2----2---2p3--2--2----2----2-----|
D|--0h3--0----0----0h3--0-----------0h3-------0h3---|
A|------------0h3-----------------------------------|
D|--------------------------------------------------|


D|--------------------------------7+--------7+-------|
B|--------------------------------7+--------7+-------|
G|--2------2----------------------7+-----------------|
D|--0------0-----------------------------------------|
A|-----h3--------------------------------------------|
D|------------------0--------------------------------|
                    ^
                    This open D is held for 4 beats

| ls legato slide
| /  slide up
| \  slide down
| h  hammer-on
| p  pull-off
| ~  vibrato
| +  harmonic
| x  Mute note
===============================================================================
Suggest correction
comments
print report bad tab
4 comments total. Showing first comments.
-1 reply
Crashman77 150 wrote on July 16 2007, 07:27 pm

he plays it in standard tuning

+1 reply
Mcut202 30 wrote on July 16 2007, 11:19 pm

^No he doesn't.

+1 reply
lbc_sublime 81 wrote on July 28 2007, 07:48 pm

yeah your totally wrong man or crash man you prolly gave it a bad vote cause you are dumb and don't know any better but it is double drop d

guest
You may want to rate the tab now too:
select rating
Wanna post a correction for this tab? Suggest correction