Oops, an error
Loading. Please wait.

Cinnamon Girl Tab

version 3
version 3

Interactive

16,870 views 12 this week
2 commentsread comments
1 2 3 4 5
accurate
x 9
add to favorites
launch autoscroll
font size
0
reset
how to read this tab
guitar tuner
Autoscroll
slow
fast
+/-
esc
set tempo
stop
Help us to improve Ultimate-Guitar.com Take our survey!
×
TITLE: CINNAMON GIRL
ALBUM: NEIL YOUNG LIVE IN BERLIN

SUBMITTED BY: Leonard Jensen (leonardeo@charter.net)
29 Sept 2004
ORIGINAL TAB BY: Tom Hambleton and Howard Wright
(via HyperRust)

Great job on the previous tabs.  I've just done
my best to improve and complete the tab.
Leonard (Buck Shot)

TUNING: Dropped-D (DADGBD)

INTRO: (and main riff)

RIFF1:
D---5--7--7--7-----7------------------------|
B---5--7--7--7-----7------------------------|
G---5--7--7--7-----7-----0--0--0------------|
D------------------------2--0--0---3---5----|
A------------------------3--2--0---3---5----|
D----------------------------------3---5----|

D---5--7--7--7-----7------------------------|
B---5--7--7--7-----7------------------------|
G---5--7--7--7-----7-----0--0--0------------|
D------------------------2--0--0---3--------|
A------------------------3--2--0---3--------|
D----------------------------------3--------|

repeat both lines twice

VERSE:

     D5                  Am11
D----0--------------------0------------------------|
B----3--------------------1------------------------|
G----2--------------------2------------------------|
D----0--------------------0------------------------|
A--------------------------------------------------|
D--------------------------------------------------|
     I wanna live with a cinnamon girl

    Cadd2               G7
D---0--------------------0----------------------|
B---1--------------------3----------------------|
G---0--------------------0----------------------|
D---2--------------------0----------------------|
A---3--------------------2----------------------|
D------------------------0----------------------|
    I could be happy the rest of my life with a

RIFF2:
D------------5--7---0--------------0------------|
B------------5--7---2----1--0--1---1------------|
G------------5--7---3----2--0--2---2------------|
D---3--5--0--5--7---0----0--0--0---2------------|
A---3--5--0--0----------------------------------|
D---3--5--0--0----------------------------------|
    cin-na-mon girl


A dreamer of pictures I run in the night
you see us together, chasing the moonlight
RIFF2   my cinnamon girl

Then do two lots of riff1.

Verse 2 has the same chord sequence, ending with another riff2.
Then do two more riff1s
Then the middle 8

MIDDLE 8:

D----5------------------------------------------|
B----5------------------------------------------|
G----5------------------------------------------|
D----5------------------------------------------|
A----3------------------------------------------|
D----3------------------------------------------|
     Ma send me money now, I'm going to make it
 (Neil bars with little and ring finger...
   sets you up for the next cord)

D----------------------------0------------------|
B----------------------------3------------------|
G----------------------------0------------------|
D----------------------------4------------------|
A----------------------------5------------------|
D----------------------------0------------------|
  somehow, I need another chance...

D------------------------------0----------------|
B------------------------------2----------------|
G------------------------------2----------------|
D------------------------------2----------------|
A------------------------------0----------------|
D------------------------------0----------------|
 You see your baby loves to dance, Yeah,Yeah,Yeah


After this middle 8 comes the SOLO:
Words below to help with timing... not sung

D---0-0-0-0-0-----------0---0----0--0----0------|
B---7-7-7-7-7-----------0---5----0--3----2------|
G---7-7-7-7-7-----------0---5----0--3----3------|
D---0-0-0-0-0-----------0---0----0--0----0------|
A-----------------------------------------------|
D-----------------------------------------------|
( A dreamer..pictures, she runs in the night...)

D---0--0-0-0-0---0--------0-0----0----0--0------|
B---5--5-5-5-5---5--------3-3----3----3--3------|
G---5--5-5-5-5---5--------3-3----3----3--3------|
D---0--0-0-0-0---5--------0-0----0----0--0------|
A-----------------------------------------------|
D-----------------------------------------------|
(  You see us together, chasing the moonlight..)

END WITH:
D---------------0-------------------------------|
B---2--0---2----3-------------------------------|
G---3--0---3----2-------------------------------|
D---------------0-------------------------------|
A-----------------------------------------------|
D-----------------------------------------------|
( Cin  a  mon  girl  (not sung))

If anyone knows the ending riff (12th to 10th,
etc, please send to me.
Suggest correction new What's this?
You can suggest a correction to this tab. Community and Mods will review your correction and vote to approve or reject it.
comments
print report bad tab
2 comments total.
0 reply
luc rocks bitch 19 wrote on November 11 2005, 12:02 pm

ffff

-1 reply
Crashman77 781 wrote on February 11 2007, 02:24 am

not dropped d tuning

guest
You may want to rate the tab now too:
select rating
Please do not post tabs as comments. Select "correction" instead!