Oops, an error
Loading. Please wait.

Comes A Time bass

version 1
version 1

Whole song

  • This is a straight forward bastab. measures are co... Show more

Interactive

100 views 3 this week
no commentswrite comment
1 2 3 4 5
3 more votes to show rating
add to favorites
×
Save as Personal and add changes to this tab that will be seen only by you. Learn more ›
×
You can save this tab as Personal to edit and correct it or add notes. All changes will be seen only by you. Learn more »
launch autoscroll
font size
0
reset
guitar tuner
edit
Autoscroll
slow
fast
+/-
esc
set tempo
stop
Author
About this tab version
This is a straight forward bastab. measures are counted in 8ths,like: 1 n 2 j 3 j 4 r. Was this info helpful? Yes No
COMES A TIME - Neil Young


INTRO:
  1 2 3 4
G|-------/
D|5---5--/
A|--5---5/ [2x]
E|-------/


VERSE
  1 2 3 4 r        4 r       4 r 1   2 j 3
G|----------/4---4---4/------5-4/------4-5---/
D|5---5---5-/--4---4--/---------/7-----------/
A|--5---5---/---------/5---5----/------------/
E|----------/---------/--5------/------------/
  Comes a time  when you’re driftin’
                       Comes a time when you settle down
  Comes a light feelings liftin’
                       Lift that baby right up off the ground


CHORUS:
G|-------/--------------------/----------------/
D|5-----5/3----3--------------/5--------------5/
A|--5----/--------3-----3-----/---5------------/
E|----3--/--------------------/--------3-------/
  Oh,    this old world keeps  spinning round It’s a

G|-----------------------/------------------/
D|3----3-----------------/5----------------5/
A|-----------3-----3-----/---5--------------/
E|-----------------------/--------3---------/
 wonder tall trees ain’t  layin’ down There comes a

G|-------/------/
D|5---5--/------/
A|--5---5/5---5-/
E|-------/--5---/
  time 


VERSE
  1 2 3 4 r        4 r       4 r 1   2 j 3
G|----------/4---4---4/------5-4/------4-5---/
D|5---5---5-/--4---4--/---------/7-----------/
A|--5---5---/---------/5---5----/------------/
E|----------/---------/--5------/------------/
 You and I   We were captured
                       We took our souls and we flew away 
 We were right We were giving
                       That’s how we kept what we gave away


CHORUS:
G|-------/--------------------/----------------/
D|5-----5/3----3--------------/5--------------5/
A|--5----/--------3-----3-----/---5------------/
E|----3--/--------------------/--------3-------/
  Oh,    this old world keeps  spinning round It’s a

G|-----------------------/------------------/
D|3----3-----------------/5----------------5/
A|-----------3-----3-----/---5--------------/
E|-----------------------/--------3---------/
 wonder tall trees ain’t  layin’ down There comes a

G|-------/------/
D|5---5--/------/
A|--5---5/5---5-/
E|-------/--5---/
  time 


Break:
  1 2 3 4 r        4 r       4 r 1   2 j 3
G|----------/4---4---4/------5-4/------4-5---/
D|5---5---5-/--4---4--/---------/7-----------/
A|--5---5---/---------/5---5----/------------/ 2x
E|----------/---------/--5------/------------/


CHORUS:
G|-------/--------------------/----------------/
D|5-----5/3----3--------------/5--------------5/
A|--5----/--------3-----3-----/---5------------/
E|----3--/--------------------/--------3-------/
  Oh,    this old world keeps  spinning round It’s a

G|-----------------------/------------------/
D|3----3-----------------/5----------------5/
A|-----------3-----3-----/---5--------------/
E|-----------------------/--------3---------/
 wonder tall trees ain’t  layin’ down There comes a

OUTRO (REP & FADE)
G|-------/-------/
D|5---5--/-------/
A|--5---5/5---5--/
E|-------/--5---5/
  time        there comes a


            
            
Suggest correction
Creating personal tab
Creating personal tab
You can edit any tab online and save it as your Personal.

You can edit, replace or remove any tab part or add personal notes – all changes will be seen only by you.

Personal tabs can be accessed anytime from any device, even offline.
Learn more »
Give kudos to tab author, rate the tab!
1 2 3 4 5
comments
print report bad tab
guest
You may want to rate the tab now too:
select rating
Wanna post a correction for this tab? Suggest correction