Oops, an error
Loading. Please wait.

Cortez The Killer Tab

version 1
version 1

Whole song

Interactive

48,656 views 42 this week
no commentswrite comment
1 2 3 4 5
x 9
add to favorites
launch autoscroll
font size
0
reset
how to read this tab
guitar tuner
×
Best way to learn
"Cortez The Killer"
Autoscroll
slow
fast
+/-
esc
set tempo
stop
[Chords]
         EADGBD

Em7      x22030
D        x00230
Am7      x02010
Am7+5th  x02030

[Intro]
E|----------------|---------------|---------------|----------------|
B|----------------|---------------|---------------|----------------|
G|--4h5/7-7-4-7-4-|-4h5/7-7-2-2/4-|-4h5-5-4-5/7-7-|4-4h5-5-4-5/7/9-|
D|----------------|---------------|---------------|----------------|
A|----------------|---------------|---------------|----------------|
E|----------------|---------------|---------------|----------------|

[Verse]
            Em7       D      Am7   Am7+5th
D|----------0-0-----0-0---0-0------------------|
B|--3-3-----3-3-----0h1---1h3------------------|
G|--0-0-----0h2-----0-0---0-0-2----------------|
D|--0h2-----0-0-----2-2---2-2-0----------------|
A|--2-2-------------0-0---0-0------------------|
E|---------------------------------------------|


************************************

| h  Hammer-on
| /  Slide up

************************************
Suggest correction
comments
print report bad tab
guest
You may want to rate the tab now too:
select rating
Wanna post a correction for this tab? Suggest correction