Oops, an error
Loading. Please wait.

Cortez The Killer Tab

version 4
version 4

Whole song

Interactive

7,169 views 9 this week
no commentswrite comment
1 2 3 4 5
2 more votes to show rating
add to favorites
launch autoscroll
font size
0
reset
how to read this tab
guitar tuner
Autoscroll
slow
fast
+/-
esc
set tempo
stop
Help us to improve Ultimate-Guitar.com Take our survey!
×
Author
Cortez The Killer
Neil Young
tabbed by Gonseg


Guitar 1

intro:
e||----------------------------------------------------------------|
B||----------------------------------------------------------------|
G||----------------------------------------------------------------|
D||----------------------------------------------------------------|
A||--5\7-7\9-9-7---------------------------------------------------|
E||--------------7-7\10-10\12-12-14-15-14-12--12\14-12\10-7-10-7-5-|

verse:
e||--------------------------------------------------------------------|
B||--------------------------------------------------------------------|
G||--4-7-7-4-7-4--4-7\9-9-9-7------------------------------------------|
D||---------------------------7-9---9-7-9--7-9\12-12-9-7-9-9-9-9\12-12-|
A||--------------------------------------------------------------------|
E||--------------------------------------------------------------------|

it repeats ( with same changes ) a few times.

e||--------------------------------------------------|
B||--------------------------------------------------|
G||--9-12-14-14b-14b------12-14--------12-12-12\14-x-|
D||--------------------14-------12-------------------|
A||--------------------------------------------------|
E||--------------------------------------------------|

e||------------------------|
B||------------------------|
G||----7-7---7-9-9b-9b-9r--|   etc.
D||--9-----9---------------|
A||------------------------|
E||------------------------|

Guitar 2:

e||---------------------------------------------------0-0----|
B||---------------------------------------------3-3-3-3-3-3--|
G||-----------------7-7-7-7-7-7-7---------------0-0-0-0-0-0--|
D||-----------------7-7-7-7-7-7-7--5-5-5-5-5-5--5-5-5-----5--|
A||--5-5-5-5-5-5-5--5-5-5-5-----5--3-3-3-3-3-3--3-3-3--------|
E||--0-0-0-0-0-0-0-------------------------------------------|
Suggest correction
Give kudos to tab author, rate the tab!
1 2 3 4 5
comments
print report bad tab
guest
You may want to rate the tab now too:
select rating
Wanna post a correction for this tab? Suggest correction