Oops, an error
Loading. Please wait.

Cowgirl In The Sand bass

version 3
version 3

Whole song

Interactive

1,988 views 18 this week
no commentswrite comment
1 2 3 4 5
x 3
add to favorites
×
Save as Personal and add changes to this tab that will be seen only by you. Learn more ›
×
You can save this tab as Personal to edit and correct it or add notes. All changes will be seen only by you. Learn more »
launch autoscroll
font size
0
reset
guitar tuner
backing track
0:00
0:00
edit
Autoscroll
slow
fast
+/-
esc
set tempo
stop
-------------------------------------------------------------------------------
		     Cowgirl In The Sand - Neil Young and Crazy Horse
-------------------------------------------------------------------------------

Tabbed By : SpaceForThePoppa
e-mail: spaceforthepoppa@yahoo.com

Tuning: EADG

Verse:
G|----------2----------------------------------------------------------------|
D|-------22---2--------------------------------------------------------------|
A|----33-----------33-22-0---------------------------------------------------|
E|-55-----------11---------3-------------------------------------------------|

Chorus:
G|---------------------------------------------------------------------------|
D|----55-33-5----55-33-5-----------------------------------------------------|
A|-33---------33-------------------------------------------------------------|
E|---------------------------------------------------------------------------|

G|---------------------------------------------------------------------------|
D|-00-0-22-2----3-00-0-22-2----3-0-0-0-0---2-3-33----------------------------|
A|-----------33-------------33-----------3--------3--------------------------|
E|--------------------------------------------------00-5---------------------|


| /  slide up
| \  slide down
| h  hammer-on
| p  pull-off
| ~  vibrato
| +  harmonic
| x  Mute note
===============================================================================

The first version of this bass tab is great, but it does not have the 
chorus.

I took the chords and tabbed out the root notes for the chorus, 
and incorporated a simplified tab of version 1, removing the 
variations and just concentrating on the foundation of the bass line.

Listen to the song and note the bass player, Billy Talbot. He never seems
to play the same line twice, but always comes back to the root. Very cool.

Play it loose.

            
            
Suggest correction
Creating personal tab
Creating personal tab
You can edit any tab online and save it as your Personal.

You can edit, replace or remove any tab part or add personal notes – all changes will be seen only by you.

Personal tabs can be accessed anytime from any device, even offline.
Learn more »
Give kudos to tab author, rate the tab!
1 2 3 4 5
comments
print report bad tab
guest
You may want to rate the tab now too:
select rating
Wanna post a correction for this tab? Suggest correction