Oops, an error
Loading. Please wait.

Dance Dance Dance Tab

version 1
version 1

Whole song

Interactive

1,962 views 1 this week
no commentswrite comment
1 2 3 4 5
please rate
add to favorites
launch autoscroll
font size
0
reset
how to read this tab
guitar tuner
Tab Pro tools
  • play this tab
  • loop segment
  • change instrument
  • show fretboard
  • metronome
×
Best way to learn
"Dance Dance Dance"
Autoscroll
slow
fast
+/-
esc
set tempo
stop
Contributor
Difficulty
novice
Title: Dance, Dance, Dance
Artist: Neil Young
Album: Live At Massey Hall 1971
Words: Neil Young
Music: Neil Young
Copyright: Neil Young
Tabber: noah_battles
Tempo = 73
Steel Guitar

Legend
L - tied note
x - dead note
h - hammer on/pull off
b - bend
s - slide
~ - vibrato
g - ghost note
> - accentuated note
t - trill
M - palm mute
. - staccato
P - popping (bass)
S - slapping (bass)
+ - tapping
W - wide vibrato
< - fade in
w - whammy bar
= - tremolo picking
v - brush up
^ - brush down
V - pick stroke up
n - pick stroke down


E |--5--5--5-----5--7--5-----2-----0-------------------|
B |--5--5--5-----5--5--5-----3-----3-----0-----2-------|
G |--5h-6--6-----6--6--6-----2-----2-----2-----2-------|
D |--7--7--7-----7--7--7-----0-----0-----2-----2-------|
A |--------------------------------------0-----0-------|
E |----------------------------------------------------|


----------------------------------------------------|
--x-----0--2--3-----2-----0-----0-----2-----x-------|
--x-----2--2--2-----2-----2-----1-----2-----x-------|
--x-----2--2--2-----2-----2-----2-----2-----x-------|
--x-----0--0--0-----0-----0-----2-----0-----x-------|
----------------------------------------------------|


--5--5--5-----5--7--5-----2-----0-------------------|
--5--5--5-----5--5--5-----3-----3-----0-----2-------|
--5h-6--6-----6--6--6-----2-----2-----2-----2-------|
--7--7--7-----7--7--7-----0-----0-----2-----2-------|
--------------------------------------0-----0-------|
----------------------------------------------------|


--------------------------------0-------------------|
--x-----0--2--3-----2-----0-----0-----2-----x-------|
--x-----2--2--2-----2-----2-----1-----2-----x-------|
--x-----2--2--2-----2-----2-----2-----2-----x-------|
--x-----0--0--0-----0-----0-----2-----0-----x-------|
--------------------------------0-------------------|


--------------2--0----------|
--2--x--2--x--3--3--0--2----|
--2--x--2--x--2--2--2--2----|
--2--x--2--x--0--0--2--2----|
--0--x--0--x--------0--0----|
----------------------------|


----------------------------------------------------|
--x-----0--2--3-----2-----0-----0-----2-----x-------|
--x-----2--2--2-----2-----2-----1-----2-----x-------|
--x-----2--2--2-----2-----2-----2-----2-----x-------|
--x-----0--0--0-----0-----0-----2-----0-----x-------|
----------------------------------------------------|


--------------2--0----------|
--2--x--2--x--3--3--0--2----|
--2--x--2--x--2--2--2--2----|
--2--x--2--x--0--0--2--2----|
--0--x--0--x--------0--0----|
----------------------------|


--------------------------------2-----2-------------|
--x-----0--2--3-----2-----0-----3-----3-------------|
--x-----2--2--2-----2-----2-----2-----2-------------|
--x-----2--2--2-----2-----2-----0-----0-------------|
--x-----0--0--0-----0-----0-------------------------|
----------------------------------------------------|


--2--2g-2g-2g-2--2g-2g-2g-2--2--2--2--3-----2-------|
--3--3g-3g-3g-3--3g-3g-3g-3--3--3--3--3-----3-------|
--2--2g-2g-2g-2--2g-2g-2g-2--2--2--2--2-----2-------|
--0--0g-0g-0g-0--0g-0g-0g-0--0--0--0--0-----0-------|
----------------------------------------------------|
----------------------------------------------------|


--2--x--2--x----------------|--------------2--0----------|
--3--x--3--x--2--x--2--x----|--2--x--2--x--3--3--0--2----|
--2--x--2--x--2--x--2--x----|--2--x--2--x--2--2--2--2----|
--0--x--0--x--2--x--2--x----|--2--x--2--x--0--0--2--2----|
--------------0--x--0--x----|--0--x--0--x--------0--0----|
----------------------------|----------------------------|


--------------------------0-------------------------|
--x-----2--2--2-----2-----0-----0-----2-----x-------|
--x-----2--2--2-----2-----1-----2-----2-----x-------|
--x-----2--2--2-----2-----2-----2-----2-----x-------|
--x-----0--0--0-----0-----2-----0-----0-----x-------|
--------------------------0-------------------------|


----------------------------------------------------|
--2-----x--x--2-----x--x--2-----x--x--2-----x--x----|
--2-----x--x--2-----x--x--2-----x--x--2-----x--x----|
--2-----x--x--2-----x--x--2-----x--x--2-----x--x----|
--0-----x--x--0-----x--x--0-----x--x--0-----x--x----|
----------------------------------------------------|


----------------------------|
--2-----x--x--2-----x--x----|
--2-----x--x--2-----x--x----|
--2-----x--x--2-----x--x----|
--0-----x--x--0-----x--x----|
----------------------------|


--5--5--5-----5--7--5-----2-----0-------------------|
--5--5--5-----5--5--5-----3-----3-----0-----2-------|
--5h-6--6-----6--6--6-----2-----2-----2-----2-------|
--7--7--7-----7--7--7-----0-----0-----2-----2-------|
--------------------------------------0-----0-------|
----------------------------------------------------|


--------------------------------0-------------------|
--x-----0--2--3-----2-----0-----0-----2-----x-------|
--x-----2--2--2-----2-----2-----1-----2-----x-------|
--x-----2--2--2-----2-----2-----2-----2-----x-------|
--x-----0--0--0-----0-----0-----2-----0-----x-------|
--------------------------------0-------------------|


--------------2--0----------|
--2--x--2--x--3--3--0--2----|
--2--x--2--x--2--2--2--2----|
--2--x--2--x--0--0--2--2----|
--0--x--0--x--------0--0----|
----------------------------|


----------------------------------------------------|
--x-----0--2--3-----2-----0-----0-----2-----x-------|
--x-----2--2--2-----2-----2-----1-----2-----x-------|
--x-----2--2--2-----2-----2-----2-----2-----x-------|
--x-----0--0--0-----0-----0-----2-----0-----x-------|
----------------------------------------------------|


--------------2--0----------|
--2--x--2--x--3--3--0--2----|
--2--x--2--x--2--2--2--2----|
--2--x--2--x--0--0--2--2----|
--0--x--0--x--------0--0----|
----------------------------|


--------------------------------2-----2-------------|
--x-----0--2--3-----2-----0-----3-----3-------------|
--x-----2--2--2-----2-----2-----2-----2-------------|
--x-----2--2--2-----2-----2-----0-----0-------------|
--x-----0--0--0-----0-----0-------------------------|
----------------------------------------------------|


--2--2g-2g-2g-2--2g-2g-2g-2--2--2--2--3-----2-------|
--3--3g-3g-3g-3--3g-3g-3g-3--3--3--3--3-----3-------|
--2--2g-2g-2g-2--2g-2g-2g-2--2--2--2--2-----2-------|
--0--0g-0g-0g-0--0g-0g-0g-0--0--0--0--0-----0-------|
----------------------------------------------------|
----------------------------------------------------|


--2--x--2--x----------------|--------------2--0----------|
--3--x--3--x--2--x--2--x----|--2--x--2--x--3--3--0--2----|
--2--x--2--x--2--x--2--x----|--2--x--2--x--2--2--2--2----|
--0--x--0--x--2--x--2--x----|--2--x--2--x--0--0--2--2----|
--------------0--x--0--x----|--0--x--0--x--------0--0----|
----------------------------|----------------------------|


--------------------------0-------------------------|
--x-----2--2--2-----2-----0-----0-----2-----x-------|
--x-----2--2--2-----2-----1-----2-----2-----x-------|
--x-----2--2--2-----2-----2-----2-----2-----x-------|
--x-----0--0--0-----0-----2-----0-----0-----x-------|
--------------------------0-------------------------|


--5--5--5-----5--7--5-----2-----0-------------------|
--5--5--5-----5--5--5-----3-----3-----0-----2-------|
--5h-6--6-----6--6--6-----2-----2-----2-----2-------|
--7--7--7-----7--7--7-----0-----0-----2-----2-------|
--------------------------------------0-----0-------|
----------------------------------------------------|


----------------------------------------------------|
--x-----0--2--3-----2-----0-----0-----2-----x-------|
--x-----2--2--2-----2-----2-----1-----2-----x-------|
--x-----2--2--2-----2-----2-----2-----2-----x-------|
--x-----0--0--0-----0-----0-----2-----0-----x-------|
----------------------------------------------------|


--5--5--5-----5--7--5-----2-----0-------------------|
--5--5--5-----5--5--5-----3-----3-----0-----2-------|
--5h-6--6-----6--6--6-----2-----2-----2-----2-------|
--7--7--7-----7--7--7-----0-----0-----2-----2-------|
--------------------------------------0-----0-------|
----------------------------------------------------|


----------------------------------------------------|
--x-----0--2--3-----2-----0-----0-----2-----x-------|
--x-----2--2--2-----2-----2-----1-----2-----x-------|
--x-----2--2--2-----2-----2-----2-----2-----x-------|
--x-----0--0--0-----0-----0-----2-----0-----x-------|
----------------------------------------------------|


--2--2g-2g-2g-2--2g-2g-2g-2--2--2--2--3-----2-------|
--3--3g-3g-3g-3--3g-3g-3g-3--3--3--3--3-----3-------|
--2--2g-2g-2g-2--2g-2g-2g-2--2--2--2--2-----2-------|
--0--0g-0g-0g-0--0g-0g-0g-0--0--0--0--0-----0-------|
----------------------------------------------------|
----------------------------------------------------|


--2-----x-----2-----x-------------------------------|
--3-----x-----3-----x-----2-----0-----0h-2--2--2----|
--2-----x-----2-----x-----2-----2-----2--2--2--2----|
--0-----x-----0-----x-----2-----2-----2--2--2--2----|
--------------------------0-----0-----0--0--0--0----|
----------------------------------------------------|


--------------2--0----------|
--2--x--2--x--3--3--0--2----|
--2--x--2--x--2--2--2--2----|
--2--x--2--x--0--0--2--2----|
--0--x--0--x--------0--0----|
----------------------------|


--------------------------0-------------------------|
--x-----2--2--2-----2-----0-----0-----2-----x-------|
--x-----2--2--2-----2-----1-----2-----2-----x-------|
--x-----2--2--2-----2-----2-----2-----2-----x-------|
--x-----0--0--0-----0-----2-----0-----0-----x-------|
--------------------------0-----------0g------------|


--------------------------0-------------------------|
--x-----2--2--2-----2-----0-----0-----2-----x-------|
--x-----2--2--2-----2-----1-----2-----2-----x-------|
--x-----2--2--2-----2-----2-----2-----2-----x-------|
--x-----0--0--0-----0-----2-----0-----0-----x-------|
--------------------------0-----------0g------------|


--5--5--5-----5--7--5-----2-----0-------------------|
--5--5--5-----5--5--5-----3-----3-----0-----2-------|
--5h-6--6-----6--6--6-----2-----2-----2-----2-------|
--7--7--7-----7--7--7-----0-----0-----2-----2-------|
--------------------------------------0-----0-------|
----------------------------------------------------|


----------------------------------------------------||
--x-----0--2--3-----2-----0-----0-----2-------------||
--x-----2--2--2-----2-----2-----1-----2-------------||
--x-----2--2--2-----2-----2-----2-----2-------------||
--x-----0--0--0-----0-----0-----2-----0-------------||
----------------------------------------------------||
comments
We did not receive enough feedback on this tab! Please rate:
print report bad tab
1 2 3 4 5
I want to post or [tab]
guest
You may want to rate the tab now too:
select rating
Please do not post tabs as comments. Select "correction" instead!