Oops, an error
Loading. Please wait.

Everybody Knows This Is Nowhere Chords

version 1
version 1

Whole song

54,696 views 54 this week
no commentswrite comment
1 2 3 4 5
x 8
add to favorites
launch autoscroll
font size
0
reset
transpose
0
reset
simplify chords
display chords
guitar tuner
Autoscroll
slow
fast
+/-
esc
set tempo
stop
Author
Strumming
There is no strumming pattern for this song yet. and get +5 IQ
[Intro]
G     C G     C   G

e|-------------------------------------------------------|
B|-------------------------------------------------------|
G|--2b4-4-4-4-4-4-4-4r2-0---0-------0-0h2p0----0-2/4-2-0-|
D|------------------------2-----0h2----------2-----------|
A|-------------------------------------------------------|
E|-------------------------------------------------------|

(He plays little variations on this idea between verses.)

[Verse 1]
   G                 C     G   C             G      C G
I think I'd better go back home and take it easy
          G                         C   G
There's a woman that I'd like to get to know
C               G     C G
  Just passing time
C                  G
Everybody seems to wonder 
Em7                  A
What it's like round here
    C                          C/B                 Am7
I'm trying to get away from the day to day running around
          C             G
Everybody knows this is nowhere

[Chorus]
G       Gmaj7      C
  La la la  la la laa laa 
G       Gmaj7      C  
  La la la  la la laa laa

[Instrumental]
G     C G     C   G
e|-------------------------------------------------------|
B|-------------------------------------------------------|
G|--2b4-4-4-4-4-4-4-4r2-0---0-------0-0h2p0----0-2/4-2-0-|
D|------------------------2-----0h2----------2-----------|
A|-------------------------------------------------------|
E|-------------------------------------------------------|

[Verse 1]
   G                 C     G   C             G      C G
I think I'd better go back home and take it easy
          G                         C   G
There's a woman that I'd like to get to know
C               G     C G
  Just passing time
C                  G
Everybody seems to wonder 
Em7                  A
What it's like round here
    C                          C/B                 Am7
I'm trying to get away from the day to day running around
          C             G
Everybody knows this is nowhere

[Chorus]
G       Gmaj7      C
  La la la  la la laa laa 
G       Gmaj7      C  
  La la la  la la laa laa
Suggest correction
comments
print report bad tab
guest
You may want to rate the tab now too:
select rating
Wanna post a correction for this tab? Suggest correction