Oops, an error
Loading. Please wait.
We have an official Heart Of Gold tab made by UG professional guitarists. Check out the tab »
×

Heart Of Gold solo tab

version 2
version 2

Whole song

10,267 views 3 this week
2 commentsread comments
1 2 3 4 5
2 more votes to show rating
add to favorites
×
Save as Personal and add changes to this tab that will be seen only by you. Learn more ›
×
You can save this tab as Personal to edit and correct it or add notes. All changes will be seen only by you. Learn more »
launch autoscroll
font size
0
reset
how to read this tab
guitar tuner
backing track
0:00
0:00
edit
Autoscroll
slow
fast
+/-
esc
set tempo
stop
These are the harmonica sections of the song transposed to guitar tab, in the key of G. 
playing it with either a volume or wah pedal.

Intro

E---------------------|-----15-----------------|
B----15---------------|-15-----17-15--17-15----|
G-------17-16---------|---------------------16-|
D-17----------19-17---|------------------------|
A------------------17-|------------------------|
E---------------------|------------------------|

E---------------------------------------------|
B---------------------------------------------|
G-----------16-16--16-16-16--16-17--16--------|
D-17-17--17----------------------------17-----|
A---------------------------------------------|
E---------------------------------------------|


Solo 1


E--------------------------|-15-17s19---------------------|
B---15-15~-----------------|---------17-15-17-15-17-15----|
G-----------17-16----------|---------------------------16-|
D-17--------------19-17----|------------------------------|
A-----------------------17-|------------------------------|
E--------------------------|------------------------------|


E--19-19---19------------------------------------------------------|
B--20-20---20-20----20---------------------------------------------|
G-------------19----19-16----16-16-16-----------16-16~-------------|
D----------------------17----17-17-----19-17-19-----------19-17----|
A------------------------------------------------------------------|
E------------------------------------------------------------------|

Solo 2


E--------15--------15-------------------------|
B-15-15------17-15-----17-15--17--17--15------|
G------------------------------------------16-|
D---------------------------------------------|
A---------------------------------------------|
E---------------------------------------------|

E------------------------------------------------------------|
B-15--15-----15-15---15--------------------------------------|
G----------------------------16s17--16--17--16---------------|
D---------17------17---17-----------------------17-----17-17-|
A------------------------------------------------------------|
E------------------------------------------------------------|

E-15---------15-------------------------------|
B-----151515-----15--17-15---17-15------------|
G----------------------------------16---------|
D---------------------------------------19-17-|
A---------------------------------------------|
E---------------------------------------------|

            
            
Suggest correction
Creating personal tab
Creating personal tab
You can edit any tab online and save it as your Personal.

You can edit, replace or remove any tab part or add personal notes – all changes will be seen only by you.

Personal tabs can be accessed anytime from any device, even offline.
Learn more »
Give kudos to tab author, rate the tab!
1 2 3 4 5
comments
print report bad tab
2 comments total.
0 reply
adampauli 10 Nov 18, 2015 07:34 AM

Perfect tab but would be easier to play acoustic 12 frets down! :)

0 reply
adampauli 10 Nov 18, 2015 07:55 AM

Though solo 2 should be
(*=correction)
E--------15--------15-------------------------|
B-15-15------17-15-----17-15--17--17--15*-----|
G---------------------------------------------|
D---------------------------------------------|
A---------------------------------------------|
E---------------------------------------------|

E------------------------------------------------------------|
B-15--15-----15-15---15-------------15*-----15*--------------|
G----------------------------16s17------17-------------------|
D---------17------17---17-----------------------17-----17-17-|
A------------------------------------------------------------|
E------------------------------------------------------------|

E-15---------15-------------------------------|
B-----151515-----15--17-15---17-15------------|
G----------------------------------16---------|
D---------------------------------------19-17-|
A---------------------------------------------|
E---------------------------------------------|

guest
You may want to rate the tab now too:
select rating
Wanna post a correction for this tab? Suggest correction