Oops, an error
Loading. Please wait.

Heart Of Gold Tab

version 1
version 1

Whole song

Interactive

Video

96,214 views 24 this week
1 commentread comment
1 2 3 4 5
x 8
add to favorites
launch autoscroll
font size
0
reset
how to read this tab
guitar tuner
backing track
0:00
0:00
×
Best way to learn
"Heart Of Gold"
Autoscroll
slow
fast
+/-
esc
set tempo
stop
"Heart of Gold"

[Intro Riff]
          Em                            D
e|---------0---0---0---0---0---0--------2-----2----0------------------|
B|---------0---0---0---0---0---0--------3-----3----0------------------|
G|---------0---0---0---0---0---0--------2-----2----0------------------|
D|---------2---2---2---2---2---2--------0-----0----2-------0--2-------|
A|---------2---2---2---2---2---2-------------------2---0H2------------|
E|---0-----0---0---0---0---0---0-------------------0------------0-----|

[Verse]
Em         C    D           G
I want to live, I want to give
I've been a miner for a heart of gold
It seems expressions, I never give

[Chorus]
Em             C                    D          G
It keeps me searching for a heart of gold
C                        C  Em
And I'm getting older
Em          C                    D          G
Keeps me searching for a heart of gold
C                        *
And I'm getting older

[Instrumental]
e|----------------------------|
B|----------------------------|
G|----------------------------|
D|----------------------------|
A|-----3-----2-----0----------|
E|-----------------------3----|

          Em                            D
e|---------0---0---0---0---0---0--------2-----2----0------------------|
B|---------0---0---0---0---0---0--------3-----3----0------------------|
G|---------0---0---0---0---0---0--------2-----2----0------------------|
D|---------2---2---2---2---2---2--------0-----0----2-------0--2-------|
A|---------2---2---2---2---2---2-------------------2---0H2------------|
E|---0-----0---0---0---0---0---0-------------------0------------0-----|

[Verse]
I've been to hollywood, I've been to Redwood
I've cross the ocean for a heart of gold
I've been in my mind, it's such a fine line

[Chorus]
Em             C                    D          G
It keeps me searching for a heart of gold
C                        C  Em
And I'm getting older
Em          C                    D          G
Keeps me searching for a heart of gold
C                        *
And I'm getting older

[Outro]
          Em                            D
e|---------0---0---0---0---0---0--------2-----2----0------------------|
B|---------0---0---0---0---0---0--------3-----3----0------------------|
G|---------0---0---0---0---0---0--------2-----2----0------------------|
D|---------2---2---2---2---2---2--------0-----0----2-------0--2-------|
A|---------2---2---2---2---2---2-------------------2---0H2------------|
E|---0-----0---0---0---0---0---0-------------------0------------0-----|

You keep me searching for a heart of gold
You keep me searching and I'm growing old
You keep me searching for a heart of gold
Suggest correction
comments
print report bad tab
1 comment total.
0 reply
leefz_rool 10 Nov 12, 2005 08:52 AM

Not good

guest
You may want to rate the tab now too:
select rating
Wanna post a correction for this tab? Suggest correction