Oops, an error
Loading. Please wait.

Heart Of Gold Bass Tab

version 2
version 2

Whole song

Interactive

3,289 views 3 this week
no commentswrite comment
1 2 3 4 5
please rate
add to favorites
launch autoscroll
font size
0
reset
guitar tuner
Tab Pro tools
  • play this tab
  • loop segment
  • change instrument
  • show fretboard
  • metronome
×
Best way to learn
"Heart Of Gold"
Autoscroll
slow
fast
+/-
esc
set tempo
stop
Contributor
Difficulty
novice
[INTRO]
  Em       D    Em       Em       D    Em
                   ~~~~~                  ~~~~~  
G:--------|------------0|--------|------------0|
D:--222222|0--0-2-----0-|--222222|0--0-2-----0-|
A:--------|--------0H2--|--------|--------0H2--|
E:0-------|-------------|0-------|-------------|


[HARMONICA SOLO]
  Em  C    D   G    Em  C    D   G    Em  C    D   G    Em       D    Em             
                                                                         ~~~~~
G:--------|--------|--------|--------|--------|--------|--------|------------0|
D:--------|0--0----|--------|0--0----|--------|0--0----|--222222|0--0-2-----0-|
A:---23--3|--------|---23--3|--------|---23--3|--------|--------|--------0H2--|
E:0-3-----|----3--2|0-3-----|----3--2|0-3-----|----3--2|0-------|-------------|

[VERSE]
  Em      C     D         G     Em            C           D        G
  I wanna live    I wanna give    I've been a miner for a heart of gold
  Em           C          D        G
  It's these expressions   I never give

  Em  C    D   G    Em  C    D   G    Em  C    D   G    
G:--------|--------|--------|--------|--------|--------|
D:--------|0--0----|--------|0--0----|--------|0--0----|
A:---23--3|--------|---23--3|--------|---23--3|--------|
E:0-3-----|----3--2|0-3-----|----3--2|0-3-----|----3--2|

[CHORUS]
  Em                            G               C                    C  G
  That keeps me searching for a heart of gold    and I'm getting old
  Em                      G               C                    C  G
  Keep me searching for a heart of gold    and I'm getting old

  Em       G        C        C   G    Em       G        C        C   G
G:--------|--------|--------|--------|--------|--------|--------|--------|
D:22222222|--------|--------|--------|--------|--------|--------|--------|
A:--------|--------|33-3----|320-----|--------|-------2|33-3----|320-----|
E:--------|33333333|--------|---3----|00--00-2|33-3----|--------|---3---3|

[HARMONICA SOLO]
  Em  C    D   G    Em  C    D   G    Em  C    D   G    Em       D    Em             
                                                                         ~~~~~
G:--------|--------|--------|--------|--------|--------|--------|------------0|
D:--------|0--0----|--------|0--0----|--------|0--0----|--222222|0--0-2-----0-|
A:---23--3|--------|---23--3|--------|---23--3|--------|--------|--------0H2--|
E:0-3-----|----3--2|0-3-----|----3--2|0-3-----|----3--2|0-------|-------------|

[VERSE]

  Em           C          D             G    
  I've been to Hollywood   I've been to Redwood  
  Em               C           D        G
  I've crossed the ocean for a heart of gold
  Em           C        D            G
  I've been in my mind   it's such a fine line

  Em  C    D   G    Em  C    D   G    Em  C    D   G    
G:--------|--------|--------|--------|--------|--------|
D:--------|0--0----|--------|0--0----|--------|0--0----|
A:---23--3|--------|---23--3|--------|---23--3|--------|
E:0-3-----|----3--2|0-3-----|----3--2|0-3-----|----3--2|

[CHORUS]
  Em                            G               C                    C  G
  That keeps me searching for a heart of gold    and I'm getting old
  Em                      G               C                    C  G
  Keep me searching for a heart of gold    and I'm getting old

  Em       G        C        C   G    Em       G        C        C   G
G:--------|--------|--------|--------|--------|--------|--------|--------|
D:22222222|--------|--------|--------|--------|--------|--------|--------|
A:--------|--------|33-3----|320-----|--------|--------|33-3----|320-----|
E:--------|33333333|--------|---3----|00--00--|33-3----|--------|---3---3|

[HARMONICA SOLO]
  Em  C    D   G    Em  C    D   G    Em  C    D   G           
G:--------|--------|--------|--------|--------|--------|
D:--------|0--0----|--------|0--0----|--------|0--0----|
A:---23--3|--------|---23--3|--------|---23--3|--------|
E:0-3-----|----3--2|0-3-----|----3--2|0-3-----|----3--2|

[CHORUS] - Modified
  Em                      D        Em  
  keep me searching for a heart of gold
      Em                        D       Em
  You keep me searching and I'm growing old
  Em                       D        Em  
  keeps me searching for a heart of gold
  Em                      G            
  I've been a miner for a heart of gold

  Em       D   Em   Em       D   Em   Em       D   Em   Em       G    
G:--------|--------|--------|--------|--------|--------|--------|--------|
D:--------|0-0-----|--------|0-0-----|--------|0--0----|--------|--------|
A:--------|--------|--------|--------|--------|--------|--------|-------2|
E:0-00----|---0---0|0-00----|---0---0|0-00----|----0--0|0-00---2|3--33---|

[OUTRO]
  C        C   G
G:--------|--------|
D:--------|--------|
A:33-3----|320-----|
E:--------|---3----|
comments
We did not receive enough feedback on this tab! Please rate:
print report bad tab
1 2 3 4 5
I want to post or [tab]
guest
You may want to rate the tab now too:
select rating
Please do not post tabs as comments. Select "correction" instead!