Oops, an error
Loading. Please wait.

Human Highway Chords

29,546 views 96 this week
no commentswrite comment
1 2 3 4 5
x 21
add to favorites
launch autoscroll
font size
0
reset
transpose
0
reset
simplify chords
display chords
guitar tuner
×
Best way to learn
"Human Highway"
Autoscroll
slow
fast
+/-
esc
set tempo
stop
Tuning: Standard, EADGBE

[Chords]
Dadd2add4 x54030
C/G       3x2013

    Dadd2add4
E|----0-0--------0-0--------0-0--|----0-0--------0-0--------0-0--|
B|----3-3--------3-3--------3-3--|----3-3--------3-3--------3-3--|
G|----0-0--------0-0--------0-0--|----0-0--------0-0--------0-0--|
D|---------5p4--------5p4--------|---------5p4--------5p4--------|
A|--5----------5----------5------|--5----------5----------5------|
E|-------------------------------|-------------------------------|

[Verse]
       G   C               G       Em
I come down from the misty mountain
      D   C             G      C/G G
I got lost on the human highway
        G   C           G       Em
Take my head refreshing fountain
        D   C                  G     C/G G
Take my eyes from what they've seen.
        C                  D Dsus4 D
Take my head and change my mind
Gmaj7                C
How could people get so unkind.

[Instrumental]
Dadd2add4 x54030
C/G       3x2013

    Dadd2add4
E|----0-0--------0-0--------0-0--|----0-0--------0-0--------0-0--|
B|----3-3--------3-3--------3-3--|----3-3--------3-3--------3-3--|
G|----0-0--------0-0--------0-0--|----0-0--------0-0--------0-0--|
D|---------5p4--------5p4--------|---------5p4--------5p4--------|
A|--5----------5----------5------|--5----------5----------5------|
E|-------------------------------|-------------------------------|

G  C/G G

[Verse]
I come down from the crooked mansion
I went lookin' for the D.J.'s daughter
Since that day I heard it mentioned
That my name is on the line.
Now, my name is on the line
How could people get so unkind.

[Instrumental]
G   C   G   Em
D   C   G C/G G
G   C   G   Em
D   C   G C/G G

[Bridge]
        C              D Dsus4 D
Now, my name is on the line
Gmaj7                C
How could people get so unkind.

[Instrumental]
    Dadd2add4
E|----0-0--------0-0--------0-0--|----0-0--------0-0--------0-0--|
B|----3-3--------3-3--------3-3--|----3-3--------3-3--------3-3--|
G|----0-0--------0-0--------0-0--|----0-0--------0-0--------0-0--|
D|---------5p4--------5p4--------|---------5p4--------5p4--------|
A|--5----------5----------5------|--5----------5----------5------|
E|-------------------------------|-------------------------------|

[Verse]
I come down from the misty mountain
I got lost on the human highway
Take my head refreshing fountain
Take my eyes from what they've seen.
Take my head and change my mind
How could people get so unkind.

[Outro]
    Dadd2add4
E|----0-0--------0-0--------0-0--|----0-0--------0-0--------0-0--|
B|----3-3--------3-3--------3-3--|----3-3--------3-3--------3-3--|
G|----0-0--------0-0--------0-0--|----0-0--------0-0--------0-0--|
D|---------5p4--------5p4--------|---------5p4--------5p4--------|
A|--5----------5----------5------|--5----------5----------5------|
E|-------------------------------|-------------------------------|   

G  C/G G
Suggest correction
comments
print report bad tab
guest
You may want to rate the tab now too:
select rating
Wanna post a correction for this tab? Suggest correction