Oops, an error
Loading. Please wait.

Like A Hurricane tab

version 2
version 2

Whole song

Interactive

33,343 views 114 this week
7 commentsread comments
1 2 3 4 5
x 13
add to favorites
×
Save as Personal and add changes to this tab that will be seen only by you. Learn more ›
×
You can save this tab as Personal to edit and correct it or add notes. All changes will be seen only by you. Learn more »
launch autoscroll
font size
0
reset
how to read this tab
guitar tuner
backing track
0:00
0:00
edit
Autoscroll
slow
fast
+/-
esc
set tempo
stop
    Tabbed by AmericanIdiot46:


  Intro              
e|----------------0---3-------------1----0--------------0---0---3--------|
B|--5-3-1-0---0-1-----3-------------1--1---3-1------0-1-----0---3--------|
G|----------2---------0---2-0-2-4---2-----------0-2---------0---0--------|
D|--------------------0-------------3-----------------------2---0--------|
A|--------------------2-------------------------------------2---2--------|
E|--------------------3-------------------------------------0---3--------|
                     Gmaj.          F                    Emin.  Gmaj.

e|--------------------------------------------------------0---0---3------|
B|--5-5-5-3-1-1-3-3---3-3-1-0-1-3--3/5-3-1-3---0-1----0-1-----0---3------|
G|-------------------------------------------2----------------0---0------|
D|------------------------------------------------------------2---0------|
A|------------------------------------------------------------2---2------|
E|------------------------------------------------------------0---3------|
                                                           Emin.  Gmaj.

  Verse
e|--0-0-0-0---3-3-3-3---1-1-1-1---0-0-0---3-3-3-3---------|
B|--1-1-1-1---3-3-3-3---1-1-1-1---0-0-0---3-3-3-3---------|
G|--2-2-2-2---0-0-0-0---2-2-2-2---0-0-0---0-0-0-0---------|
D|--2-2-2-2---0-0-0-0---3-3-3-3---2-2-2---0-0-0-0---------|
A|--0-0-0-0---2-2-2-2-------------2-2-2---2-2-2-2---------|
E|------------3-3-3-3-------------0-0-0---3-3-3-3---------|
    Aminor    Gmajor      F       Eminor   Gmajor   


Chorus goes:

C, G, F, G, C, G, F, G, C, G, F, G, F

All open chords for chorus.



For the rest of the riffs and soloing he is just making different patterns out of the riffs above.


                                           Tabbed by AmericanIdiot46

            
            
Suggest correction
Creating personal tab
Creating personal tab
You can edit any tab online and save it as your Personal.

You can edit, replace or remove any tab part or add personal notes – all changes will be seen only by you.

Personal tabs can be accessed anytime from any device, even offline.
Learn more »
comments
print report bad tab
7 comments total. Showing first comments.
0 reply
cocaineboy 10 Mar 18, 2006 12:21 AM

nicley done, this helped me alot when it came to playing it on the organ, especially for the chorus

nice tab and a great song

0 reply
Iron_Man860 10 Aug 03, 2006 05:57 AM

I play the tab and it sounds nothing like the song

+1 reply
DeargDoom 10 Nov 07, 2006 09:31 AM

No guys this is completely wrong the chords are right but the actually tab bit is wrong. You see neil uses a technique of playing a not then playing it on a different string an octave higher

guest
You may want to rate the tab now too:
select rating
Wanna post a correction for this tab? Suggest correction