Oops, an error
Loading. Please wait.

Like A Hurricane Tab

version 3
version 3

Whole song

Interactive

56,039 views 1 this week
11 commentsread comments
1 2 3 4 5
excellent!
x 12
add to favorites
launch autoscroll
font size
0
reset
how to read this tab
guitar tuner
Tab Pro tools
  • play this tab
  • loop segment
  • change instrument
  • show fretboard
  • metronome
Autoscroll
slow
fast
+/-
esc
set tempo
stop
Contributor
Difficulty
advanced
                Neil Young (with Crazy Horse) – Like a Hurricane

Firstly, check out my other tabs aswell, thanks!

Oh my god this was an S.O.B. to tab! But here it is, in it’s entirety, Like a Hurricane! 
favourite Neil Young song. I admit some few parts of the solo may be wrong but it’s the 
you’re gonna get (seriously, you guys are just mean if you don’t like this tab!lol)

Tablature Legend:
/    - slide up
\    - slide down
~    - vibrato
H    - Harmonic
h    - Hammer-on
p    - Pull-off
x    - Muted note
?(?) – Bend (to what is in the brackets)
d    - dive-bomb

Intro:
  Gtr I (Use Wah just here)
e|------------------------|---------------------------|---------------------|
B|-5-5-5\3-3-3\1-1-0-1-1--|-/3-3\1-1-1p0-0-1-0-0-1-3--|-1-1p0-0-----0-1-1/3-|
G|------------------------|---------------------------|---------2-2---------|
D|------------------------|---------------------------|---------------------|
A|------------------------|---------------------------|---------------------|
E|------------------------|---------------------------|---------------------|
 |
 |Gtr II
e|-12-12-12\10-10-10\8-7-8-8-|-/10-10\8-8-8\7-7-7/8-7-7-8-10-|-8-8\7-7-7\5-5-5/7-7/8-|
B|---------------------------|-------------------------------|-----------------------|
G|---------------------------|-------------------------------|-----------------------|
D|---------------------------|-------------------------------|-----------------------|
A|---------------------------|-------------------------------|-----------------------|
E|---------------------------|-------------------------------|-----------------------|

e|-----------------------|
B|-----------------------|
G|-----------------------|
D|-2-x--2-2--0-0-0-0--0--|
A|-2-x--2-2--2-2-2-2--2--|
E|-0-x--0-0--3-3-3-3--3--|

Verse:
  Gtr I
e|-0--0--0-0--0-0-0--|----3--3-3--3-3-3--|-1--1--1--1-1-1--|----0-0-0--|
B|-1--1--------------|----3--------------|-1--1------------|----0-0-0--|
G|-2--2--------------|-0--0--------------|-2--2------------|-0--0-0-0--|
D|-2-----------------|-0-----------------|-3---------------|-2---------|
A|-0-----------------|-2-----------------|-3---------------|-2---------|
E|-------------------|-3-----------------|-----------------|-0---------|

  Gtr I
e|-------------------------|
B|----3-----3-----3-----3--|
G|-0--0--0--0--0--0--0--0--|
D|-0--0--0--0--0--0--0--0--|
A|-2-----2-----2-----2-----|
E|-3-----3-----3-----3-----|
 |
 |Gtr II
e|-------------------------|
B|-------------------------|
G|-0--0--------------------|
D|-------4--4--3--3--2--2--|
A|-------------------------|
E|-------------------------|

  Gtr I
e|-0--0--0-0--0-0-0--|----3--3-3--3-3-3--|-1--1--1--1-1-1--|----0-0-0--|
B|-1--1--------------|----3--------------|-1--1------------|----0-0-0--|
G|-2--2--------------|-0--0--------------|-2--2------------|-0--0-0-0--|
D|-2-----------------|-0-----------------|-3---------------|-2---------|
A|-0-----------------|-2-----------------|-3---------------|-2---------|
E|-------------------|-3-----------------|-----------------|-0---------|

e|---------------|
B|---------------|
G|---------------|
D|----0--0--0-0--|
A|----2--2--2-2--|
E|-3--3--3--3-3--|

Chorus:

e|-0-0-x-3-3-x-1--1--1--1-|-0-0-x-3-3-x-1--1--1--1--------|-0-0-x-3-3-x-1--1--1--1-|
B|-1-1-x-3-3-x-1--1--1--1-|-1-1-x-3-3-x-1--1--1--1--------|-1-1-x-3-3-x-1--1--1--1-|
G|-0-0-x-0-0-x-2--2--2--2-|-0-0-x-0-0-x-2--2--2--2--------|-0-0-x-0-0-x-2--2--2--2-|
D|------------------------|-------------------------------|------------------------|
A|------------------------|------------------------0-2-3--|------------------------|
E|------------------------|-------------------------------|------------------------|

e|------1--------------1---------|
B|---------1--------------1------|
G|------------2--------------2---|
D|-------------------------------|
A|-3--------------3--------------|
E|-1--1-----------1--1-----------|

Solo I:

e|-------------------------------------------------------------------|
B|-5-3-1--3-----0-1-3(5)-3-1-0--1-3~----3-3(5)-3(5)-3-1-------0-1-5--|
G|----------2~------------------------0-----------------2-2~---------|
D|-------------------------------------------------------------------|
A|-------------------------------------------------------------------|
E|-------------------------------------------------------------------|

e|-----------------3-----|
B|----3-5--3-----3----3--|
G|-0----------0----------|
D|-----------------------|
A|-----------------------|
E|-----------------------|

Verse:
  Gtr I
e|-0--0--0-0--0-0-0--|----3--3-3--3-3-3--|-1--1--1--1-1-1--|----0-0-0--|
B|-1--1--------------|----3--------------|-1--1------------|----0-0-0--|
G|-2--2--------------|-0--0--------------|-2--2------------|-0--0-0-0--|
D|-2-----------------|-0-----------------|-3---------------|-2---------|
A|-0-----------------|-2-----------------|-3---------------|-2---------|
E|-------------------|-3-----------------|-----------------|-0---------|

e|-------------------------|
B|----3-----3--------------|
G|-0--0-----0--------------|
D|-0--0--0--0--0--0--0--0--|
A|-2-----2-----2--2--2--2--|
E|-3-----3-----3--3--3--3--|

  Gtr I
e|-0--0--0-0--0-0-0--|----3--3-3--3-3-3--|-1--1--1--1-1-1--|----0-0-0--|
B|-1--1--------------|----3--------------|-1--1------------|----0-0-0--|
G|-2--2--------------|-0--0--------------|-2--2------------|-0--0-0-0--|
D|-2-----------------|-0-----------------|-3---------------|-2---------|
A|-0-----------------|-2-----------------|-3---------------|-2---------|
E|-------------------|-3-----------------|-----------------|-0---------|

e|-------------------------|
B|----3-----3--------------|
G|-0--0-----0--------------|
D|-0--0--0--0--0--0--0--0--|
A|-2-----2-----2--2--2--2--|
E|-3-----3-----3--3--3--3--|

Chorus:

e|-0-0-x-3-3-x-1--1--1--1-|-0-0-x-3-3-x-1--1--1--1--------|-0-0-x-3-3-x-1--1--1--1-|
B|-1-1-x-3-3-x-1--1--1--1-|-1-1-x-3-3-x-1--1--1--1--------|-1-1-x-3-3-x-1--1--1--1-|
G|-0-0-x-0-0-x-2--2--2--2-|-0-0-x-0-0-x-2--2--2--2--------|-0-0-x-0-0-x-2--2--2--2-|
D|------------------------|-------------------------------|------------------------|
A|------------------------|------------------------0-2-3--|------------------------|
E|------------------------|-------------------------------|------------------------|

  Gtr I
e|------1--------------1---------|
B|---------1--------------1------|
G|------------2--------------2---|
D|-------------------------------|
A|-3--------------3--------------|
E|-1--1-----------1--1-----------|
 |
 |Gtr II
e|-----------------0-------------|
B|-----------------1-------------|
G|---------------0-2-------------|
D|-------------0-0-3-------------|
A|-------------0-2---------------|
E|-------------------------------|

Solo II:

e|-12p0-12p0-12p0-12p0-12p0-12p0-12p0-12p0-12p0-12p0-12p0-12p0-12p0-12p0-12p0-|
B|----------------------------------------------------------------------------|
G|----------------------------------------------------------------------------|
D|----------------------------------------------------------------------------|
A|----------------------------------------------------------------------------|
E|----------------------------------------------------------------------------|
Play the above about twice more!

e|----------------------------------------------------12-15~--15p12h15p12----12--------|
B|----13----15-13----15-13----------------------13-15---------------------15----15-15~-|
G|-14----14-------14-------14-14-12-14----12-14----------------------------------------|
D|-------------------------------------14----------------------------------------------|
A|-------------------------------------------------------------------------------------|
E|-------------------------------------------------------------------------------------|

e|-------------------------------------------|
B|-13p12h13p12-12~--12-15p13p12----13--------|
G|------------------------------14----14-12~-|
D|-------------------------------------------|
A|-------------------------------------------|
E|-------------------------------------------|

e|-------------------12-----------------------------------------------12----------12-15-|
B|-------12-13-15-15----15-13-12-13-15--13-12h13p12-12-------12-13-15----15p13p12-------|
G|-12-14----------------------------------------------12~-14----------------------------|
D|--------------------------------------------------------------------------------------|
A|--------------------------------------------------------------------------------------|
E|--------------------------------------------------------------------------------------|

e|-15p12----12-15-15(17)-(17)-(17)-(17)-(17)-(17)-(16)-(16)-(16)-(16)-15p12\-|
B|-------15------------------------------------------------------------------|
G|---------------------------------------------------------------------------|
D|---------------------------------------------------------------------------|
A|---------------------------------------------------------------------------|
E|---------------------------------------------------------------------------|

e|-12-12\10-10-10\8-7-8-8-/10-10\8-8-8\7-7-7-5-7-7-/8-8\7-7-7/10-10-10\8-8/10-10/12-12-|
B|-------------------------------------------------------------------------------------|
G|-------------------------------------------------------------------------------------|
D|-------------------------------------------------------------------------------------|
A|-------------------------------------------------------------------------------------|
E|-------------------------------------------------------------------------------------|

e|-12h15-15-15---12h15-----|----------------------------------15(17)(15)—15(17)-15(17)-|
B|-------------------------|-------13h15----13h15p13-15--------------------------------|
G|-------------------------|-12-14-------14-------------14p12--------------------------|
D|-------------------------|-----------------------------------------------------------|
A|-------------------------|-----------------------------------------------------------|
E|-------------------------|-----------------------------------------------------------|

e|-15(17)-15(17)-15(17)-15(17)(15)-12h15p12------------------------------------------|
B|------------------------------------------15(17)(17)(17)(17)(17)(17)-13h15p13~-----|
G|--------------------------------------------------------------------------------14-|
D|-----------------------------------------------------------------------------------|
A|-----------------------------------------------------------------------------------|
E|-----------------------------------------------------------------------------------|

e|-15(17)----12-12/13-13-13\12-13-12--|
B|------------------------------------|
G|------------------------------------|
D|------------------------------------|
A|------------------------------------|
E|------------------------------------|

e|--------------------------------------------------------------------------|
B|-15p13----15~-15~-15~-15~-15p13----15p13-15p13-15p13-------------------13-|
G|-------14-----------------------14-------------------14-12----12-14-14----|
D|-----------------------------------------------------------14-------------|
A|--------------------------------------------------------------------------|
E|--------------------------------------------------------------------------|

e|--------------------------------------------------------------|
B|-15p13-15p13-15(17)--------13-15-15p13-15p13-15(17)-(17)-(17)-|
G|---------------------12h14------------------------------------|
D|--------------------------------------------------------------|
A|--------------------------------------------------------------|
E|--------------------------------------------------------------|

e|-----------------------------------------------------------------|
B|-------13-15-13-15(17)-(17)-(17)-------13-15-13-15(17)-(17)-(17)-|
G|-12h14---------------------------12h14---------------------------|
D|-----------------------------------------------------------------|
A|-----------------------------------------------------------------|
E|-----------------------------------------------------------------|

e|--------------------------------------------------15-15--|
B|-------13-15-13-15(17)-(17)-(17)-------13-15(17)---------|
G|-12h14---------------------------12h14-------------------|
D|---------------------------------------------------------|
A|---------------------------------------------------------|
E|---------------------------------------------------------|

                          H    H    H    H                            H       H
e|-15(17)-15(17)-15-12-15(17)-(17)-(17)-(17)--15(17)-x-15-12-15(17)--15(17)--15(17)--|
B|-----------------------------------------------------------------------------------|
G|-----------------------------------------------------------------------------------|
D|-----------------------------------------------------------------------------------|
A|-----------------------------------------------------------------------------------|
E|-----------------------------------------------------------------------------------|

e|-15(17)-x-15-12~-20(22)--20(22)--20(22)--20-20-19-17-19-19--19--19------|
B|-------------------------------------------------------------------17~--|
G|------------------------------------------------------------------------|
D|------------------------------------------------------------------------|
A|------------------------------------------------------------------------|
E|------------------------------------------------------------------------|

e|---------------------------------------12-\10-10\8-8\7-7-7/8-7--/10-10\8-8\7-7\5-7-7--|
B|-17p0-15p0-13p0-12-13-12-15-13-12~-\--------------------------------------------------|
G|--------------------------------------------------------------------------------------|
D|--------------------------------------------------------------------------------------|
A|--------------------------------------------------------------------------------------|
E|--------------------------------------------------------------------------------------|

e|-5/7-5/7/8-7-7/8-7-7\5-5\3-5-7-5--------------------------|
B|---------------------------------5~-----------------------|
G|----------------------------------------------------------|
D|------------------------------------2-x--2-2--0-0-0-0--0--|
A|------------------------------------2-x--2-2--2-2-2-2--2--|
E|------------------------------------0-x--0-0--3-3-3-3--3--|

Verse:
  Gtr I
e|-0--0--0-0--0-0-0--|----3--3-3--3-3-3--|-1--1--1--1-1-1--|----0-0-0--|
B|-1--1--------------|----3--------------|-1--1------------|----0-0-0--|
G|-2--2--------------|-0--0--------------|-2--2------------|-0--0-0-0--|
D|-2-----------------|-0-----------------|-3---------------|-2---------|
A|-0-----------------|-2-----------------|-3---------------|-2---------|
E|-------------------|-3-----------------|-----------------|-0---------|

  Gtr I
e|-------------------------|
B|----3-----3-----3-----3--|
G|-0--0--0--0--0--0--0--0--|
D|-0--0--0--0--0--0--0--0--|
A|-2-----2-----2-----2-----|
E|-3-----3-----3-----3-----|

  Gtr I
e|-0--0--0-0--0-0-0--|----3--3-3--3-3-3--|-1--1--1--1-1-1--|----0-0-0--|
B|-1--1--------------|----3--------------|-1--1------------|----0-0-0--|
G|-2--2--------------|-0--0--------------|-2--2------------|-0--0-0-0--|
D|-2-----------------|-0-----------------|-3---------------|-2---------|
A|-0-----------------|-2-----------------|-3---------------|-2---------|
E|-------------------|-3-----------------|-----------------|-0---------|

e|---------------|
B|---------------|
G|---------------|
D|----0--0--0-0--|
A|----2--2--2-2--|
E|-3--3--3--3-3--|

Chorus:

e|-0-0-x-3-3-x-1--1--1--1-|-0-0-x-3-3-x-1--1--1--1----|-0-0-x-3-3-x-1--1--1--1-|
B|-1-1-x-3-3-x-1--1--1--1-|-1-1-x-3-3-x-1--1--1--1----|-1-1-x-3-3-x-1--1--1--1-|
G|-0-0-x-0-0-x-2--2--2--2-|-0-0-x-0-0-x-2--2--2--2----|-0-0-x-0-0-x-2--2--2--2-|
D|------------------------|---------------------------|------------------------|
A|------------------------|---------------------------|------------------------|
E|------------------------|---------------------------|------------------------|

  Gtr I
e|------1--------------1---------|
B|---------1--------------1------|
G|------------2--------------2---|
D|-------------------------------|
A|-3--------------3--------------|
E|-1--1-----------1--1-----------|
 |
 |Gtr II
e|-----------------0-------------|
B|-----------------1-------------|
G|---------------0-2-------------|
D|-------------0-0-3-------------|
A|-------------0-2---------------|
E|-------------------------------|

Solo III:

e|-12p0-12p0-12p0-12p0-12p0-12p0-12p0-12\----------------------------------------------|
B|-----------------------------------------15p0-15p0-15p0-15p0-15p0-15p0-15p0-15p0-17\-|
G|-------------------------------------------------------------------------------------|
D|-------------------------------------------------------------------------------------|
A|-------------------------------------------------------------------------------------|
E|-------------------------------------------------------------------------------------|

e|----------------------------------------------------------------------------------|
B|13p0-13p0-13p0-13p0-13p0-13p0-13p0-13p0-15\--12-12-----12p0-12p0----10p0----8p0---|
G|----------------------------------------------------------------------------------|
D|----------------------------------------------------14-----------14------12-----9-|
A|----------------------------------------------------------------------------------|
E|----------------------------------------------------------------------------------|

e|-------------|---------------------------------|
B|-7-5-3-5/7\5-|-5-3-----------------3-----------|
G|-------------|-----5p2-0-2-2-2h4/5----5p4-2p0--|
D|-------------|---------------------------------|
A|-------------|---------------------------------|
E|-------------|---------------------------------|

e|-------------------------------------------------------------------------------------|
B|-12-15p12-15p12-15p13p12-15p12-15p12-15p13p12-15p12-15p12-15-------15p12-15p12-15p12-|
G|-------------------------------------------------------------14p12-------------------|
D|-------------------------------------------------------------------------------------|
A|-------------------------------------------------------------------------------------|
E|-------------------------------------------------------------------------------------|

e|-15p12-------15p12-------------15p12-15p12-15~-----12-13p12p10----------10~-------15~-|
B|-------15p12-------15p12------------------------15-------------13-10-13-----13-10-----|
G|-------------------------14p12--------------------------------------------------------|
D|--------------------------------------------------------------------------------------|
A|--------------------------------------------------------------------------------------|
E|--------------------------------------------------------------------------------------|

e|-12p10-12p10-12(13)-12-10--------------------------------------------------|
B|--------------------------13-10--------------------15----15----13p10-------|
G|--------------------------------12~-12~-12~-12~-12----12----12-------12h14-|
D|---------------------------------------------------------------------------|
A|---------------------------------------------------------------------------|
E|---------------------------------------------------------------------------|

e|-15~-12h13-12h13p12-----------------------15(17)-15p12--------------------------------|
B|-----------------------12-------15----------------------------------------------------|
G|--------------------14----14-12-----14p12--------------14-x-14~-14~-14p12-14~-14~-14~-|
D|--------------------------------------------------------------------------------------|
A|--------------------------------------------------------------------------------------|
E|--------------------------------------------------------------------------------------|

e|----------------------------------------------------------------------------------|
B|----------------------------------------------------------------------------------|
G|-14~-14~-14~-14p12---------14p12-14~-14p12-------14p12-14~-14~-14~-14(16)-14~-14~-|
D|-------------------14-14~------------------14-14----------------------------------|
A|----------------------------------------------------------------------------------|
E|----------------------------------------------------------------------------------|

e|-----------------------------------------------------------------------------------|
B|-----------------------------------------------------------------------------------|
G|-14~-14~-14~-14(16)-14-12------12-14p12-14p12------12-14p12-14(16)-14-12-----------|
D|--------------------------14~-----------------14~------------------------14-12-12~-|
A|-----------------------------------------------------------------------------------|
E|-----------------------------------------------------------------------------------|

e|----------------------------------------------------------------------------|
B|----------------------------------------------------------------------------|
G|-------12--14--------12-12-14-p12h14p12h14p12h14p12h14p12h14p12h14p12h14p12-|
D|-12h14---------12-14--------------------------------------------------------|
A|----------------------------------------------------------------------------|
E|----------------------------------------------------------------------------|

e|-------------------------------------------------------------------------|
B|-------------------------------------------------------------------------|
G|-14(16)-14p12--------12h14p12-------12h14p12-------12h14-14-14-14-14-14~-|
D|--------------14-14-----------14p12----------14p12-----------------------|
A|-------------------------------------------------------------------------|
E|-------------------------------------------------------------------------|

e|-------------------------------------------------------------------------------------|
B|-10h12-15~-12h13-12-12~-10h12-10-10~-12p10-8-8~-8/10-10/12-12p10-8-10-10-10-10/12\10-|
G|-------------------------------------------------------------------------------------|
D|-------------------------------------------------------------------------------------|
A|-------------------------------------------------------------------------------------|
E|-------------------------------------------------------------------------------------|

e|---------------------------------------------------------------------------|
B|-8h10-10-10/12-12-12-12/13-13~-13~-13~-13~-13~-12-15~-15~-15~-15(17)----17-|
G|---------------------------------------------------------------------------|
D|---------------------------------------------------------------------------|
A|---------------------------------------------------------------------------|
E|---------------------------------------------------------------------------|

e|-19(19)-19-19-19-19-19-19-19-19-----/17----19(19)-19-19-19-19-19-19-19-19-----/16--|
B|-20(22)-20-20-20-20-20-20-20-20-20\-/18-17-20(22)-20-20-20-20-20-20-20-20-20\-/18--|
G|-----------------------------------------------------------------------------------|
D|-----------------------------------------------------------------------------------|
A|-----------------------------------------------------------------------------------|
E|-----------------------------------------------------------------------------------|

e|-13h15-13-12~---------12~-12~-12~-12~-12~-12~--------------------------|
B|----------------15-13--------------------------12h13-13~-13p12----13~--|
G|---------------------------------------------------------------14------|
D|-----------------------------------------------------------------------|
A|-----------------------------------------------------------------------|
E|-----------------------------------------------------------------------|

e|-------------------------------------------------------------|
B|-13p12----13p12h13p12h13p12h13p12h13p12h13p12h13p12-12h13p12-|
G|-------14----------------------------------------------------|
D|-------------------------------------------------------------|
A|-------------------------------------------------------------|
E|-------------------------------------------------------------|

e|--------------------------------------------------------------------|
B|-15p12-15p12-15p12-15p12-15p12-15p12-15p12-15p12-15p12-15p12-15p12--|
G|--------------------------------------------------------------------|
D|--------------------------------------------------------------------|
A|--------------------------------------------------------------------|
E|--------------------------------------------------------------------|

                    H              H
e|-15(17)-15(17)-15(17)-15(17)--15(17)-15-12-15-12-15(17)p12-------------------------|
B|-----------------------------------------------------------15-13-12-13-12----------|
G|--------------------------------------------------------------------------14-12~---|
D|-----------------------------------------------------------------------------------|
A|-----------------------------------------------------------------------------------|
E|-----------------------------------------------------------------------------------|

e|--------------------------------------------------------------------------|
B|-------13(13)---------13----13-15(17)(15)p13---------13(13)---------13-15-|
G|-12h14-14(17)-14~--14----14------------------14~--14-14(17)-14~--14-------|
D|--------------------------------------------------------------------------|
A|--------------------------------------------------------------------------|
E|--------------------------------------------------------------------------|

e|------------------------------------------12-17-15~-12-15-15(17)--|
B|-15(17)-15(17)-15p13-13(13)---------13-15-------------------------|
G|---------------------14(17)-14~--14-------------------------------|
D|------------------------------------------------------------------|
A|------------------------------------------------------------------|
E|------------------------------------------------------------------|

Broken Sound here:
(All broken notes will have an “x” after them, e.g. 12x. This differs from a muted note)

e|-12x-12x----------------------------------------12x-12x-------------------------------|
B|---------15(17)-15x-13-15-13-------------------------------------------------13h15p13-|
G|-----------------------------14-12x-14-12---------------14-12-12h14p12h14p12----------|
D|------------------------------------------14-12---------------------------------------|
A|--------------------------------------------------------------------------------------|
E|--------------------------------------------------------------------------------------|

e|-12x----------------------------------------------------------------------------------|
B|-------------13x-13x-13x-13-13-13-13-13x-13-13(15)x-13(15)x-13(15)x---------13(15)(13)|
G|--------------------------------------------------------------------14x-12x-----------|
D|---------12x--------------------------------------------------------------------------|
A|------12------------------------------------------------------------------------------|
E|--------------------------------------------------------------------------------------|
(try to improvise here)

e|----------------------------------------------------------------|
B|----------------------------------------------------------------|
G|----12-14-14(16)-14-12-14---------16d---------------------------|
D|-14-----------------------14------------16d---14d---------------|
A|----------------------------------------------------14d---------|
E|----------------------------------------------------------14d---|

e|-----------------------------------1-----------------------|
B|-----------------------------------2-----------------------|
G|-----------------------------------2-----------------------|
D|-----------------------------------0-----------------------|
A|----------3----3-5--5(7)-----------------------------------|
E|-1~~~-1-3----3-----------0---------------------------------|

If you want, you can just use parts of these solos to make up your own solo. Neil always 
his solos, these are just off of the studio recorded versions.

Enjoy!
comments
print report bad tab
11 comments total. Showing first comments. show 1 bad comment
+2 reply
Bazzar0 wrote on November 10 2008, 09:03 pm

Dude great job on the solos.

+2 reply
Metallicam wrote on November 18 2008, 01:41 am

Pretty good. Amazing song! Just some corrections for the chorus. The chords are C-G-F-G instead of C-G-F-F. And the little walk up in the second part of the chorus goes as follows...

-----------------
-----------------
-----------------
-----------------
---0-2-3---------
-3---------------

As you can see, it walks up from the G chord to the C chord and makes the correction I made before make sense. But amazing tab on the solos bud!

I want to post or [tab]
guest
You may want to rate the tab now too:
select rating
Please do not post tabs as comments. Select "correction" instead!