Oops, an error
Loading. Please wait.
We have Chord Pro version of My My Hey Hey.
It's the closest thing you can get to the original song and it has interactive parts. Check out the tab »
×
337 views 12 this week
1 commentread comment
1 2 3 4 5
3 more votes to show rating
add to favorites
×
Save as Personal and add changes to this tab that will be seen only by you. Learn more ›
×
You can save this tab as Personal to edit and correct it or add notes. All changes will be seen only by you. Learn more »
launch autoscroll
font size
0
reset
how to read this tab
guitar tuner
edit
Autoscroll
slow
fast
+/-
esc
set tempo
stop
Author
[intro riff]                 Am             Am
e|----------------------------------------------------------------------------------|
B|---------------------------|-1---1---1---|---1---1--1---|-------------------------|
G|-----------------------------2---2---2-------2---2--2-----------------------------|
D|-------------0--0------------2---2---2-------2---2--2-------------------0--0------|
A|-0--0--1/2---------3/2--0--|-------------|--------------|---0--0--1/2-------------|
E|----------------------------------------------------------------------------------|

                   Am           Am      chorus C                G
e|--------------------------------------------------------------3----3----3---3----|
B|-------------|---1--1--1---|--1---1---1--|---0---0---0---0----0----0----0---0----|
G|-----------------2--2--2------2---2---2------0---0---0---0----0----0----0---0----|
D|-----------------2--2--2------2---2---2------2---2---2---2----0----0----0---0----|
A|---3/-2--0---|-------------|-------------  --3---3---3---3----2----2----2---2----|
E|--------------------------------------------------------------3----3----3---3----|

  Am
e|---------------------------------------------------------------------|
B|-1--1--1--1--|-------------------------------------------------------|
G|-2--2--2--2----------------------------------------------------------|
D|-2--2--2--2------------------0--0------------------------------------|
A|-------------|---0--0---1/2--------3/2--0----------------------------|
E|---------------------------------------------------------------------|

[Verse 1]
Am        G
My my, hey hey

Am        G
Rock and roll is here to stay

[Chorus]
C         G
It's better to burn out
  Am
Than to fade away

 Am       G
My my, hey hey.

[Verse 2]
 Am          G
Out of the blue
             Am
and into the black

Am            G
They give you this,
                Am
but you pay for that

[Chorus]
  C              G
And once you're gone,
   Am
you can never come back
Am                    G
When you're out of the blue
             Am
and into the black.

[Verse 3]
Am          G
The king is gone
             Am
but he's not forgotten
Am             G
This is the story
              Am
of a Johnny Rotten

[Chorus]
C               G
It's better to burn out
  Am
than it is to rust
Am             G
The king is gone
               Am
but he's not forgotten.

[solo] (mainly does intro and then plays over chorus)

[Verse]
Am       G
Hey hey, my my
Am       G
Rock and roll can never die

[Chorus]
C                   G
There's more to the picture
Am
Than meets the eye.
Am        G
Hey hey, my my.

            
            
Suggest correction
Creating personal tab
Creating personal tab
You can edit any tab online and save it as your Personal.

You can edit, replace or remove any tab part or add personal notes – all changes will be seen only by you.

Personal tabs can be accessed anytime from any device, even offline.
Learn more »
Give kudos to tab author, rate the tab!
1 2 3 4 5
comments
print report bad tab
1 comment total.
0 reply
amancini1 60 Dec 22, 2016 11:13 AM

goo easy to do, not a tough one, prob one of his easier ones

guest
You may want to rate the tab now too:
select rating
Wanna post a correction for this tab? Suggest correction