Oops, an error
Loading. Please wait.

Old Man Tab

version 4
version 4

Interactive

Video

75,691 views 36 this week
4 commentsread comments
1 2 3 4 5
worth learning
x 9
add to favorites
launch autoscroll
font size
0
reset
how to read this tab
guitar tuner
Tab Pro tools
  • play this tab
  • loop segment
  • change instrument
  • show fretboard
  • metronome
×
Best way to learn
"Old Man"
Autoscroll
slow
fast
+/-
esc
set tempo
stop
Contributor
Difficulty
novice
-------------------------------------------------------------------------------
                             Old Man - Neil Young
-------------------------------------------------------------------------------
Tabbed by: Chris Gennone
Email: Serpico104@aol.com

Tuning: Standard

Ok, I know you can finger pick this one but recently in Neil Young's concert
film/documentary Heart of Gold, playing Old Man, he strummed the whole thing.
So this is what I got, and it sounds nearly the same as picking it. Just strum
the strings I have numbered here.


Intro:
e|----0----0----0---0----0----0----0----0---h2---2---2---3---2---0---0-------|
B|----6----6----6---6----6----6----6----0--------0---0---0---0---3--s6-------|
G|----5----0----0--h5---h5---h5---h5----2--------0---0---0---0---0---5-------|
D|----0----0----0---0----0----0----0----0--------0---0---0---0---0---0-------|
A|---------------------------------------------------------------------------|
E|---------------------------------------------------------------------------|

e|----0----0----0---0----0----0----0----0---h2---2---2---3---2---0---0-------|
B|----6----6----6---6----6----6----6----0--------0---0---0---0---3--s6-------|
G|----5----0----0--h5---h5---h5---h5----2--------0---0---0---0---0---5-------|
D|----0----0----0---0----0----0----0----0--------0---0---0---0---0---0-------|
A|---------------------------------------------------------------------------|
E|---------------------------------------------------------------------------|


Verses:
e|----0----0----0---0----0----0----0----0---h2---2---2---3---2---0---0-------|
B|----6----6----6---6----6----6----6----0--------0---0---0---0---3--s6-------|
G|----5----0----0--h5---h5---h5---h5----2--------0---0---0---0---0---5-------|
D|----0----0----0---0----0----0----0----0--------0---0---0---0---0---0-------|
A|---------------------------------------------------------------------------|
E|---------------------------------------------------------------------------|
e|---------------------------------------------------------------------------|

e|----0----0----0---0----0----0----0----0---h2---2---2---3---2---0---0-------|
B|----6----6----6---6----6----6----6----0--------0---0---0---0---3--s6-------|
G|----5----0----0--h5---h5---h5---h5----2--------0---0---0---0---0---5-------|
D|----0----0----0---0----0----0----0----0--------0---0---0---0---0---0-------|
A|---------------------------------------------------------------------------|
E|---------------------------------------------------------------------------|


e|----2------2------2------1------0------3----------------------------------|
B|----3------3------3------1------1------0----------------------------------|
G|----2------2------2------2------0------0----------------------------------|
D|----0------0------0------3------2------0----------------------------------|
A|--------------------------------3------2----------------------------------|
E|---------------------------------------3----------------------------------|

Chorus:

e|----2------------0-------------0-------------------------------------------|
B|----3------------1-------------3-------------------------------------------|
G|----2------------0-------------0-------------------------------------------|
D|----0------------0-------------0-------------------------------------------|
A|-----------------2-------------2-------------------------------------------|
E|---------------------------------------------------------------------------|
comments
print report bad tab
4 comments total. Showing first comments.
0 reply
Guitars R us wrote on September 23 2006, 11:49 am

uhhhh close?

0 reply
Guitars R us wrote on September 23 2006, 11:49 am

haha to bad i cant read tabs..or this one...what does anyone else think?

0 reply
everyday wrote on December 23 2006, 11:02 am

tab difficulty : novice is a bit overrated

I want to post or [tab]
guest
You may want to rate the tab now too:
select rating
Please do not post tabs as comments. Select "correction" instead!