Oops, an error
Loading. Please wait.

On The Beach chords

version 1
version 1

Whole song

45,879 views 222 this week
3 commentsread comments
1 2 3 4 5
x 14
add to favorites
×
Save as Personal and add changes to this tab that will be seen only by you. Learn more ›
×
You can save this tab as Personal to edit and correct it or add notes. All changes will be seen only by you. Learn more »
launch autoscroll
font size
0
reset
transpose
0
reset
simplify chords
display chords
guitar tuner
edit
Autoscroll
slow
fast
+/-
esc
set tempo
stop
Author
Unregistered
Strumming
There is no strumming pattern for this song yet. and get +5 IQ
rcwoods@tcd.ie (cal woods)

On The Beach : Neil Young : On The Beach

This song really only has three chords
Am7 = 575555
Am7+B = 575557
Dm = 557765
Cm7  = 335453

You need to listen to the song to learn when to hit the bass
notes and play the runs.

You can also play it at the neck
Am7 = 002010
Dm = x00231
Cm7  = x32000


[Verse 1]

Am7                                             Am7+B
The world is turning, I hope it don't turn away
             Dm                             Am7
The world is turning, I hope it don't turn away
Cm7                         Dm
        All my pictures are falling
Cm7                                             Dm
        From the wall where I placed them yesterday
Am7
The world is turning, I hope it don't turn away

(same as verse 1)

I need a crowd of people, but I can't face them day to day
I need a crowd of people, but I can't face them day to day
Though my problems are meaningless
That don't make them go away
I need a crowd of people, but I can't face them day to day
 
[Solo]

(same chords progression)

I went to the radio interview, but I ended up alone at the microphone
I went to the radio interview, but I ended up alone at the microphone
Now I'm living out here on the beach
But those seagulls are still out of rach
I went to the radio interview, but I ended up alone at the microphone

Get outta town, I think I'll get outta town
Get outta town, I think I'll get outta town
I head for the stick [mumble mumble mumble]
I follow a road I don't know where it goes
Get outta town, I think I'll get outta town

Cos the world is turning, I hope it don't turn away

[Solo]

            
            
Suggest correction
Creating personal tab
Creating personal tab
You can edit any tab online and save it as your Personal.

You can edit, replace or remove any tab part or add personal notes – all changes will be seen only by you.

Personal tabs can be accessed anytime from any device, even offline.
Learn more »
comments
print report bad tab
3 comments total.
0 reply
Jupuler 30 Jun 13, 2007 08:02 AM

Nice chord tab... would be perfect if it had all the lyrics on but still good.

+2 reply
cartergj 260 Sep 06, 2014 03:27 PM

Lyrics correction
I head for the stick [mumble mumble mumble]
I follow a road I don't know where it goes

is....
I head for the sticks with my bus and friends,
I follow the road, though I don't know where it ends.

Also this great solo from the Rust List

SOLO 1: (at 2:32)
e|-----------------------------------------------------------------------
B|-----------------------------------------------------------------------
G|---7-5h7p5-7-----------5-5h7-----5-5-7-7/9-12-12h14-12----12-12/14-14--
D|-------------7-----5h7-------5h7-----------------------14--------------
A|---------------8-7-----------------------------------------------------
E|-----------------------------------------------------------------------

e|--13-12-------------12-------12-15-15-15h17-17-15-12-12-10b12r10-------
B|--------15-13-13h15-------13-------------------------------------13-10-
G|-----------------------14----------------------------------------------
D|-----------------------------------------------------------------------
A|-----------------------------------------------------------------------
E|-----------------------------------------------------------------------

e|----------12-10--------------------------------------------------------
B|-13-10-13-------13-12---12-12-13-12----12-13-12-12-12h13p12------------
G|------------------------------------12---------------------------------
D|-----------------------------------------------------------------------
A|-----------------------------------------------------------------------
E|-----------------------------------------------------------------------

e|-----------------------------------------5-----------------------------
B|-------------------------------------3/5-------------------------------
G|--7b9r7---7-5-------5--------------------------------------------------
D|--------------7-5h7---5h7----------------------------------------------
A|--------------------------5-5h7----------------------------------------
E|--------------------------------5--------------------------------------

0 reply
coopstahhh 10 Apr 28, 2017 09:22 AM

It should be Cmaj7 instead of Cm7, and where it goes from Cmaj7 to Dm should be played as Cmaj7 to Fmaj7

guest
Wanna post a correction for this tab? Suggest correction