Oops, an error
Loading. Please wait.

On The Way Home Live tab

version 1
version 1

Whole song

23,990 views 3 this week
no commentswrite comment
1 2 3 4 5
1 last vote to show rating
add to favorites
×
Save as Personal and add changes to this tab that will be seen only by you. Learn more ›
×
You can save this tab as Personal to edit and correct it or add notes. All changes will be seen only by you. Learn more »
launch autoscroll
font size
0
reset
how to read this tab
guitar tuner
edit
Autoscroll
slow
fast
+/-
esc
set tempo
stop
-------------------------------------------------------------------------------
                             SONG NAME - Band Name
-------------------------------------------------------------------------------
Tabbed by:  Worton
Email: lendrix85@msn.com

Tuning: standard
Intro
e|---7-7--x-----5--5--5-5---x---3--3---x---2----------------|--r---------------------------|
B|---7-7--x-----7--7--7-7---x---3--3---x---3----------------|---e--------------------------|
G|---7-7--x-----6--6--6-6---x---4--4---x---2-------------*--|----p--------------------------|
D|--------x-----7--7--7-7---x---5--5---x-----------------*--|-----e----------------------|
A|--------x-----5--5--5-5---x----------x--------------------|------a------------------|
E|--------x-----5--5--5-5---x----------x--------------------|-------t-----------------|


           D           A6                     D          D  Dsus4 D
When the dream came I held my breath with my eyes closed

    D                  A6                     D          D  Dsus4 D
I went insane, Like a smoke ring day When the wind blows

        D          Dsus4   A6 
Now I won't be back till later on

     D Dsus4 D/C#         Bm Bm   E
If I do come back at all

         G   D         Am7
But you know me, and I miss you now.

Play intro again then chord progression follows throughout


In a strange game
I saw myself as you knew me
When the change came,
And you had a
Chance to see through me
Though the other side is just the same
You can tell my dream is real
Because I love you, can you see me now.

Though we rush ahead to save our time
We are only what we feel
And I love you, can you feel it now.

Chord Inversions

     D    Dsus4    A6    D/C#    Bm      E      G     Am7
e|---2-----3--------2-----2-------2------0------3------3-----------------------------|
B|---3-----3--------2-----3-------3------0-----(3)-----1-------------------------------|
G|---2-----2--------2-----2-------4------1------0------2-----------------------------|
D|--(4)-------------2-------------4------2------0------2----------------------------|
A|------------------------4-------2------2------2-----(0)--------------------------|
E|--------------------------------2------0------3-----(0)--------------------------|

Add parenthetical 4th fret in D chord in verses
You can also switch from A6 to D or vice versa by hammering the 2nd and 3rd fingers onto the 3rd and 4th frets of the 4th and 2nd frets respectively

| /  slide up
| \  slide down
| h  hammer-on
| p  pull-off
| ~  vibrato
| +  harmonic
| x  Mute note
=================

            
            
Suggest correction
Creating personal tab
Creating personal tab
You can edit any tab online and save it as your Personal.

You can edit, replace or remove any tab part or add personal notes – all changes will be seen only by you.

Personal tabs can be accessed anytime from any device, even offline.
Learn more »
Give kudos to tab author, rate the tab!
1 2 3 4 5
comments
print report bad tab
guest
You may want to rate the tab now too:
select rating
Wanna post a correction for this tab? Suggest correction