Oops, an error
Loading. Please wait.

Over And Over Tab

8,469 views 12 this week
1 commentread comment
1 2 3 4 5
excellent!
x 3
add to favorites
launch autoscroll
font size
0
reset
how to read this tab
guitar tuner
Tab Pro tools
  • play this tab
  • loop segment
  • change instrument
  • show fretboard
  • metronome
Autoscroll
slow
fast
+/-
esc
set tempo
stop
Contributor
-------------------------------------------------------------------------------
                             Over And Over - Neil Young and Crazy Horse
-------------------------------------------------------------------------------
Tabbed by: Jeff

Tuning: this is in standard (but Neil Young probably plays it in double drop d)

I decided to write down this whole song because I love singing/listening
to this on the trip to and from college and I love Neil's melodic soloing.

intro/main riff

E------------------------------------------------------------------------|
B------------------------------------------------------------------------|
G------------------------------------------------------------------------|
D-------10--10----10-12-----12-12-12--------10--10----10--------10-12-12-|
A-------10--10----10-12-----12-12-12--10----10--10----10--------10-12-12-|
E-10h12--------12--------10----10-10-----12--------12----12--10----10-10-|


E-----------------------------------------------------------------|
B-----------------------------------------------------------------|
G-----------------------------------------------------------------|
D-------10--10----10-12-----12-12-12--------10--10----10-12/14-12-|
A-------10--10----10-12-----12-12-12--10----10--10----10-12/14-12-|
E-10h12--------12--------10----10-10-----12--------12-------------|

solo:

(over chords G C D)

e|-----------------------------------------------------------------------------|
B|-----------------------------------------------------------------------------|
G|----------------------9--10--12----------------------------------------------|
D|-9-9--10--12-------9-(9)(10)(12)----------------------9-9--10--12------------|
A|--------------10-----------------10/12--12~~~(p10)----------------10---------|
E|-----------------------------------------------------------------------------|

e|-----------------------------------------------------------------------------|
B|-----------------------------------------------------------------------------|
G|-----------------------------------------------------------------------------|
D|--9-9--10--12-------------9-9--10--12--------9-9--10--12---------------------|
A|---------------10h12~~-----------------10----------------10/12--12~~~(p10----|
E|-----------------------------------------------------------------------------|

e|---------------------------------------------------------------------------|
B|--------------------------------------8---8---8-8--8---8--/12--10---10-10-8|
G|----------------------------------7h9---9---9--------9---------------------|
D|-----------9---------------------------------------------------------------|
A|-10-10--12-----------------------------------------------------------------|
E|--------------10h12--12--10-10~~-------------------------------------------|

e|---------------------------------------------------------------------------|
B|-12-12-12--10--8----------------------------------------(8)---(8)----------|
G|------------------(7)-----------------7h9-9-7--------------(9)-------------|
D|-------------------------9-9--10--12-----------10-9--7~~------------10-----|
A|---------------------------------------------------------------------------|
E|---------------------------------------------------------------------------|

e|---------------------------------------------------------------------------|
B|---------------------------------------------------------------------------|
G|---------------------------------------------------------------------------|
D|--10h12--10--9-------9--7-----------9-10--10-9-7~~-------7-9-10~~9-7-------|
A|---------------------------10--10--------------------10--------------10~~--|
E|---------------------------------------------------------------------------|

e|----------------------|
B|----------------------|
G|----------------------|
D|----------------------|
A|-7--10----------------|
E|--------10--10--------|

(verse)

G                 C                    D
At night when the sky is clear and the moon is shining down

G             C               D
My heart goes running back to you

G          C            D
I love the way you open up and let me in

G       C               D
So I go running back to you,

                 G
Over and over again.              e------------------------|
                                  B------------------------|
(chorus)                          G------------------------|
                                  D------------------------|
G        C             D          A--2-2--3-3-3-3-2-0------|
Over and over again my love  -->  E--------------------3---|

G        C               D        G---------------0----|
Over and over again with you  --> D---------0--2-------|
                                  A-0h2h3-3------------|
G        C             D          E--------------------|
Over and over again my love  **

G        C               D                e---------------|
Over and over again with you.          ** B------------0--|
                                          G-0-0--2-0-2----|
(intro riff)

solo:


e|-----------------------------------------------------------------------------|
B|-----------------------------------------------------------------------------|
G|-----------------------------------------------------------------------------|
D|-9-9--10--12-------9-9-10-12---------------------------------9---------------|
A|--------------10--------------10--12--12~~~(p10)---10-10--12-----------------|
E|----------------------------------------------------------------10h12--------|

                                                            (pinch harmonics)
e|-----------------------------------------------------------------------------|
B|-----------------------------------------------------------------------------|
G|-----------------------------------------------------------------------------|
D|-------------9-9~~\7/9~~--9\7--9--7-------------------9--9h10-10-10-9-7-7----|
A|--10-10--12--------------------------(10)--10-10--12-------------------------|
E|-----------------------------------------------------------------------------|

                                                          * harmonics
e|-----------------------------------------------------------------------------|
B|--------------------------------------------------------------*12--15--------|
G|-----------------------------------------------------------*12---------------|
D|-9-9-9--10--12-------9-9-9--10--12--/16--/17-/19--/21---*12------------------|
A|---------------10------------------------------------------------------------|
E|-----------------------------------------------------------------------------|


e|---------------------------------------------------------------------------|
B|-15-15--13-12--13-------10---------10h12--12-12-12--10------------/12--10--|
G|-------------------9h11-----(11p9)---------------------12------------------|
D|-----------------------------------------------------------12h14-----------|
A|---------------------------------------------------------------------------|
E|---------------------------------------------------------------------------|


e|---------------------------------------------------------------------------|
B|-------------------------10-----------------------15--15--13-12------12--13|
G|-12-12---11-11---9h11h12------9-------9------*12-----------------14--------|
D|---------------------------------12------*12-------------------------------|
A|---------------------------------------------------------------------------|
E|---------------------------------------------------------------------------|

e|---------------------------------------------------------------------------|
B|-12--------------------------13-12----------------------------8/10~~-------|
G|----14--14~~----14-14--14h16---------------------------12------------------|
D|-----------------------------------12~~~---12-12-12/14----14---------------|
A|---------------------------------------------------------------------------|
E|---------------------------------------------------------------------------|

G            C                       D
Remember the nights of love and that moment on the beach


G           C               D
That wasn't really too long ago


G               C                  D
But we paid the price of time, and now it's out of reach


G          C             D
And so the broken circle goes,

                 G
Over and over again


G        C             D
Over and over again my love
G        C             D
Over and over again with you
G        C             D
Over and over again my love
G        C             D
Over and over again with you.

(Intro riff)

Guitar solo:

e|-----------------------------------------------------------------------------|
B|-----------------------------------------------------------------------------|
G|-----------------------------------------------------------------------------|
D|-*9-9--10--12-------9-9-10-12---------------------9-9--10--12----------------|
A|--------------10--------------10--12--12~~~(p10)--------------10-------------|
E|-----------------------------------------------------------------------------|

e|-----------------------------------------------------------------------------|
B|-----------------------------------------------------------------------------|
G|-----------------------------------------------------------------------------|
D|-9-9--10--12-------------------9-------------------9/10-9--7~~(7)------------|
A|-------------10h12~~-10-10--12----------10-10--12----------------------------|
E|---------------------------------12------------------------------------------|


e|---------------------------------------------------------------------------|
B|---------------------------------------------------------------------------|
G|---------------------------------------------------------------------------|
D|-9-9--10--12--12---12-12-10-9----------------------------------------------|
A|------------------------------12-12~~~---*14-*14--*15-*15-*15-*14-*12------|
E|----------------------------------------------------------------------10~~-|


e|---------------------------------------------------------------------------|
B|--------10-12-10-----10----------------------------------------------------|
G|-----12----------12-----11--11/14--etc.------------------------------------|
D|-12------------------------------------------------------------------------|
A|---------------------------------------------------------------------------|
E|---------------------------------------------------------------------------|


G              C                 D
Somewhere in a fire of love, our dreams went up in smoke


G         C              D
We danced beneath silver rain


G        C                      D
Upon the fields of green, where time was just a joke


G           C                  D
And now the feeling's just the same,

                 G
Over and over again.


G        C             D
Over and over again my love
G        C             D
Over and over again with you
G        C             D
Over and over again my love
G        C             D
Over and over again with you.

(Intro riff)

| /  slide up
| \  slide down
| h  hammer-on
| p  pull-off
| ~  vibrato
| +  harmonic
| x  Mute note
| ~  Feedback
| * pinch harmonic (or otherwise noted)
===============================================================================
comments
We did not receive enough feedback on this tab! Please rate:
print report bad tab
1 2 3 4 5
1 comment total.
0 reply
Clemo103 wrote on July 30 2009, 03:40 pm

Excellent tab. Well done sir.

I want to post or [tab]
guest
You may want to rate the tab now too:
select rating
Please do not post tabs as comments. Select "correction" instead!