Oops, an error
Loading. Please wait.

Rockin In The Free World tab

version 1
version 1

Interactive

Video

47,816 views 30 this week
3 commentsread comments
1 2 3 4 5
x 14
add to favorites
×
Save as Personal and add changes to this tab that will be seen only by you. Learn more ›
×
You can save this tab as Personal to edit and correct it or add notes. All changes will be seen only by you. Learn more »
launch autoscroll
font size
0
reset
how to read this tab
guitar tuner
backing track
0:00
0:00
edit
Autoscroll
slow
fast
+/-
esc
set tempo
stop
Author
Unregistered
Tabbed by djfritz

[INTRO]
GUITAR 1 
   PM------|   Let Ring
E|-------------------------------------|
B|-------------------------------------|
G|-------------------------------------| this is played 2 times alone
D|-99999999------7-----5---------------| just this guitar, the the 2nd guitar, bass 
A|-77777777------5-----3---------------| and drums come in on the third time.
E|-XXXXXXXX----------------------------|

GUITAR 2
E|------------------------------------|
B|------------------------------------|
G|------------------------------------|
D|-22222222---------------------------|
A|-22222222------7----5---------------|
E|-00000000------5----3---------------|

[VERSE]
GUITAR 1 
   PM------|   Let Ring
E|-------------------------------------|
B|-------------------------------------|
G|-------------------------------------| 
D|-99999999------7-----5---------------|  
A|-77777777------5-----3---------------| 
E|-XXXXXXXX----------------------------|

GUITAR 2
E|------------------------------------|
B|------------------------------------|
G|------------------------------------|
D|-22222222---------------------------|
A|-22222222------7----5---------------|
E|-00000000------5----3---------------|

[CHORUS]
GUITAR 1
E|-----------------------------------------|
B|-----------------------------------------|
G|-----------------------------------------|
D|--5----7---5------55--5------------------|
A|--5----5---3------33--3------------------|
E|--3----------------------0---------------|
                  ^PM^
GUITAR 2
E|------------------------------------|
B|------------------------------------|
G|------------------------------------|
D|---5---7---5------------------------|
A|---5---5---3----3-2-0---------------|
E|---3------------------3-0-0---------|

After playing the chorus through 4 times..
both guitars play an A5 and hold it  for 1 measure then return to verse riff

[SOLO]
You are on your own.
I will tell you the cords are the same as the intro E, D, C

            
            
Suggest correction
Creating personal tab
Creating personal tab
You can edit any tab online and save it as your Personal.

You can edit, replace or remove any tab part or add personal notes – all changes will be seen only by you.

Personal tabs can be accessed anytime from any device, even offline.
Learn more »
comments
print report bad tab
3 comments total.
0 reply
Picarddelta 10 Feb 23, 2005 07:00 PM

ya, this works, thanx

0 reply
rush4life 100 Sep 29, 2005 03:08 AM

Learn to spell

0 reply
Teh Wheelz 36 Aug 23, 2008 09:24 PM

Horrible, and learn how to spell.

guest
Wanna post a correction for this tab? Suggest correction