Oops, an error
Loading. Please wait.

Rockin In The Free World bass

version 5
version 5

Whole song

Interactive

139 views 6 this week
no commentswrite comment
1 2 3 4 5
1 last vote to show rating
add to favorites
×
Save as Personal and add changes to this tab that will be seen only by you. Learn more ›
×
You can save this tab as Personal to edit and correct it or add notes. All changes will be seen only by you. Learn more »
launch autoscroll
font size
0
reset
guitar tuner
backing track
0:00
0:00
edit
Autoscroll
slow
fast
+/-
esc
set tempo
stop
Author
Difficulty
About this tab version
Improved timing in the verses, includes the slides, layout made for autoscroll. Was this info helpful? Yes No
[Intro]

G|-----------------|-----------------|-----------------|-----------------|
D|-----------------|-----------------|-----------------|-----------------|
A|-----------------|-----------------|-----------------|-----------------|
E|-0-0-0-0-0-0-0-0-|-0-0-0-0-0-0-0-0-|-0-0-0-0-0-0-0-0-|-0-0-0-0-0-0-0-0-|

G|-----------------|-----------------|-----------------|-----------------|
D|-----------------|-----------------|-----------------|-----------------|
A|-----------------|-----------------|-----------------|-----------------|
E|-0-0-0-0-0-0-0-0-|-0-0-0-0-0-0-0-0-|-0-0-0-0-0-0-0-0-|-0-0-0-0-0-0-0-0-|

[Verse]

G|-----------------|-----------------|-----------------|-----------------|
D|-----------------|-----------------|-----------------|-----------------|
A|-----------------|-5-5---3---3-3-3-|-----------------|-5-5---3---3-3-3-|
E|-0-0-0-0-0-0-0-0-|-----------------|-0-0-0-0-0-0-0-0-|-----------------|

G|-----------------|-----------------|-----------------|-----------------|
D|-----------------|-----------------|-----------------|-----------------|
A|-----------------|-5-5---3---3-3-3-|-----------------|-5-5---3---3-3-3-|
E|-0-0-0-0-0-0-0-0-|-----------------|-0-0-0-0-0-0-0-0-|-----------------|

G|-----------------|-----------------|-----------------|-----------------|
D|-----------------|-----------------|-----------------|-----------------|
A|-----------------|-5-5-5-5-3-3-3-3-|-----------------|-5-5-5-5-3-3-3-3-|
E|-0-0-0-0-0-0-0-0-|-----------------|-0-0-0-0-0-0-0-0-|-----------------|

G|-----------------|-----------------|-----------------|-----------------|
D|-----------------|-----------------|-----------------|-----------------|
A|-----------------|-5-5-5-5-3-3-3-3-|-----------------|-5-5-5-5-3-3-3-3-|
E|-0-0-0-0-0-0-0-0-|-----------------|-0-0-0-0-0-0-0-0-|-----------------|

[Chorus]

G|-----------------|-----------------|-----------------|-----------------|
D|-----------------|-----------------|-----------------|-----------------|
A|-----------------|-5-5-5-5-5-5-5-5-|-3-3-3-3-3-3-3-3-|-3-2-------------|
E|-3-3-3-3-3-3-3-3-|-----------------|-----------------|-----3-0-----0-/-|

G|-----------------|-----------------|-----------------|-----------------|
D|-----------------|-----------------|-----------------|-----------------|
A|-----------------|-5-5-5-5-5-5-5-5-|-3-3-3-3-3-3-3-3-|-3-2-------------|
E|-3-3-3-3-3-3-3-3-|-----------------|-----------------|-----3-0-----0-/-|

G|-----------------|-----------------|-----------------|-----------------|
D|-----------------|-----------------|-----------------|-----------------|
A|-----------------|-5-5-5-5-5-5-5-5-|-3-3-3-3-3-3-3-3-|-3-2-------------|
E|-3-3-3-3-3-3-3-3-|-----------------|-----------------|-----3-0-----0-/-|

G|-----------------|-----------------|-----------------|-----------------|
D|-----------------|-----------------|-----------------|-----------------|
A|-----------------|-5-5-5-5-5-5-5-5-|-3-3-3-3-3-3-3-3-|-3-2-------------|
E|-3-3-3-3-3-3-3-3-|-----------------|-----------------|-----3-0-----0-/-|

G|-----------------|-----------------|-----------------|-----------------|
D|-----------------|-----------------|-----------------|-----------------|
A|-----------------|-----------------|-----------------|-----------------|
E|-5-5-5-5-5-5-5-5-|-5-5-5-5-5-5-5-5-|-5-5-5-5-5-5-5-5-|-5-5-5-5-5-5-5-5-|

[Post Chorus]

G|-----------------|-----------------|-----------------|-----------------|
D|-----------------|-----------------|-----------------|-----------------|
A|-----------------|-----------------|-----------------|-----------------|
E|-0-0-0-0-0-0-0-0-|-0-0-0-0-0-0-0-0-|-0-0-0-0-0-0-0-0-|-0-0-0-0-0-0-0-0-|

G|-----------------|-----------------|-----------------|-----------------|
D|-----------------|-----------------|-----------------|-----------------|
A|-----------------|-----------------|-----------------|-----------------|
E|-0-0-0-0-0-0-0-0-|-0-0-0-0-0-0-0-0-|-0-0-0-0-0-0-0-0-|-0-0-0-0-0-0-0-0-|

[Verse]

G|-----------------|-----------------|-----------------|-----------------|
D|-----------------|-----------------|-----------------|-----------------|
A|-----------------|-5-5---3---3-3-3-|-----------------|-5-5---3---3-3-3-|
E|-0-0-0-0-0-0-0-0-|-----------------|-0-0-0-0-0-0-0-0-|-----------------|

G|-----------------|-----------------|-----------------|-----------------|
D|-----------------|-----------------|-----------------|-----------------|
A|-----------------|-5-5---3---3-3-3-|-----------------|-5-5---3---3-3-3-|
E|-0-0-0-0-0-0-0-0-|-----------------|-0-0-0-0-0-0-0-0-|-----------------|

G|-----------------|-----------------|-----------------|-----------------|
D|-----------------|-----------------|-----------------|-----------------|
A|-----------------|-5-5-5-5-3-3-3-3-|-----------------|-5-5-5-5-3-3-3-3-|
E|-0-0-0-0-0-0-0-0-|-----------------|-0-0-0-0-0-0-0-0-|-----------------|

G|-----------------|-----------------|-----------------|-----------------|
D|-----------------|-----------------|-----------------|-----------------|
A|-----------------|-5-5-5-5-3-3-3-3-|-----------------|-5-5-5-5-3-3-3-3-|
E|-0-0-0-0-0-0-0-0-|-----------------|-0-0-0-0-0-0-0-0-|-----------------|

[Chorus]

G|-----------------|-----------------|-----------------|-----------------|
D|-----------------|-----------------|-----------------|-----------------|
A|-----------------|-5-5-5-5-5-5-5-5-|-3-3-3-3-3-3-3-3-|-3-2-------------|
E|-3-3-3-3-3-3-3-3-|-----------------|-----------------|-----3-0-----0-/-|

G|-----------------|-----------------|-----------------|-----------------|
D|-----------------|-----------------|-----------------|-----------------|
A|-----------------|-5-5-5-5-5-5-5-5-|-3-3-3-3-3-3-3-3-|-3-2-------------|
E|-3-3-3-3-3-3-3-3-|-----------------|-----------------|-----3-0-----0-/-|

G|-----------------|-----------------|-----------------|-----------------|
D|-----------------|-----------------|-----------------|-----------------|
A|-----------------|-5-5-5-5-5-5-5-5-|-3-3-3-3-3-3-3-3-|-3-2-------------|
E|-3-3-3-3-3-3-3-3-|-----------------|-----------------|-----3-0-----0-/-|

G|-----------------|-----------------|-----------------|-----------------|
D|-----------------|-----------------|-----------------|-----------------|
A|-----------------|-5-5-5-5-5-5-5-5-|-3-3-3-3-3-3-3-3-|-3-2-------------|
E|-3-3-3-3-3-3-3-3-|-----------------|-----------------|-----3-0-----0-/-|

G|-----------------|-----------------|-----------------|-----------------|
D|-----------------|-----------------|-----------------|-----------------|
A|-----------------|-----------------|-----------------|-----------------|
E|-5-5-5-5-5-5-5-5-|-5-5-5-5-5-5-5-5-|-5-5-5-5-5-5-5-5-|-5-5-5-5-5-5-5-5-|

[Solo]

G|-----------------|-----------------|-----------------|-----------------|
D|-----------------|-----------------|-----------------|-----------------|
A|-----------------|-5-5-5-5-3-3-3-3-|-----------------|-5-5-5-5-3-3-3-3-|
E|-0-0-0-0-0-0-0-0-|-----------------|-0-0-0-0-0-0-0-0-|-----------------|

G|-----------------|-----------------|-----------------|-----------------|
D|-----------------|-----------------|-----------------|-----------------|
A|-----------------|-5-5-5-5-3-3-3-3-|-----------------|-5-5-5-5-3-3-3-3-|
E|-0-0-0-0-0-0-0-0-|-----------------|-0-0-0-0-0-0-0-0-|-----------------|

G|-----------------|-----------------|-----------------|-----------------|
D|-----------------|-----------------|-----------------|-----------------|
A|-----------------|-5-5-5-5-3-3-3-3-|-----------------|-5-5-5-5-3-3-3-3-|
E|-0-0-0-0-0-0-0-0-|-----------------|-0-0-0-0-0-0-0-0-|-----------------|

G|-----------------|-----------------|-----------------|-----------------|
D|-----------------|-----------------|-----------------|-----------------|
A|-----------------|-5-5-5-5-3-3-3-3-|-----------------|-5-5-5-5-3-3-3-3-|
E|-0-0-0-0-0-0-0-0-|-----------------|-0-0-0-0-0-0-0-0-|-----------------|

[Verse]

G|-----------------|-----------------|-----------------|-----------------|
D|-----------------|-----------------|-----------------|-----------------|
A|-----------------|-5-5-5-5-3-3-3-3-|-----------------|-5-5-5-5-3-3-3-3-|
E|-0---0---0-0-0-0-|-----------------|-0---0---0-0-0-0-|-----------------|

G|-----------------|-----------------|-----------------|-----------------|
D|-----------------|-----------------|-----------------|-----------------|
A|-----------------|-5-5-5-5-3-3-3-3-|-----------------|-5-5-5-5-3-3-3-3-|
E|-0---0---0-0-0-0-|-----------------|-0---0---0-0-0-0-|-----------------|

G|-----------------|-----------------|-----------------|-----------------|
D|-----------------|-----------------|-----------------|-----------------|
A|-----------------|-5-5-5-5-3-3-3-3-|-----------------|-5-5-5-5-3-3-3-3-|
E|-0-0-0-0-0-0-0-0-|-----------------|-0-0-0-0-0-0-0-0-|-----------------|

G|-----------------|-----------------|-----------------|-----------------|
D|-----------------|-----------------|-----------------|-----------------|
A|-----------------|-5-5-5-5-3-3-3-3-|-----------------|-5-5-5-5-3-3-3-3-|
E|-0---0---0-0-0-0-|-----------------|-0-0-0-0-0-0-0-0-|-----------------|

[Chorus]

G|-----------------|-----------------|-----------------|-----------------|
D|-----------------|-----------------|-----------------|-----------------|
A|-----------------|-5-5-5-5-5-5-5-5-|-3-3-3-3-3-3-3-3-|-3-2-------------|
E|-3-3-3-3-3-3-3-3-|-----------------|-----------------|-----3-0-----0-/-|

G|-----------------|-----------------|-----------------|-----------------|
D|-----------------|-----------------|-----------------|-----------------|
A|-----------------|-5-5-5-5-5-5-5-5-|-3-3-3-3-3-3-3-3-|-3-2-------------|
E|-3-3-3-3-3-3-3-3-|-----------------|-----------------|-----3-0-----0-/-|

G|-----------------|-----------------|-----------------|-----------------|
D|-----------------|-----------------|-----------------|-----------------|
A|-----------------|-5-5-5-5-5-5-5-5-|-3-3-3-3-3-3-3-3-|-3-2-------------|
E|-3-3-3-3-3-3-3-3-|-----------------|-----------------|-----3-0-----0-/-|

G|-----------------|-----------------|-----------------|-----------------|
D|-----------------|-----------------|-----------------|-----------------|
A|-----------------|-5-5-5-5-5-5-5-5-|-3-3-3-3-3-3-3-3-|-3-2-------------|
E|-3-3-3-3-3-3-3-3-|-----------------|-----------------|-----3-0-----0-/-|

G|-----------------|-----------------|-----------------|-----------------|
D|-----------------|-----------------|-----------------|-----------------|
A|-----------------|-----------------|-----------------|-----------------|
E|-5-5-5-5-5-5-5-5-|-5-5-5-5-5-5-5-5-|-5-5-5-5-5-5-5-5-|-5-5-5-5-5-5-5-5-|

[Outro]

G|-----------------|-----------------|-----------------|-----------------|
D|-----------------|-----------------|-----------------|-----------------|
A|-----------------|-5-5---3---3-3-3-|-----------------|-5-5---3---3-3-3-|
E|-0-0-0-0-0-0-0-0-|-----------------|-0---0---0-0-0-0-|-----------------|

G|-----------------|-----------------|-----------------|-----------------|
D|-----------------|-----------------|-----------------|-----------------|
A|-----------------|-5-5---3---3-3-3-|/7---------------|-5-5---3---3-3-3-|
E|-0-0-0-0-0-0-0-0-|-----------------|---0-0-0-0-0-0-0-|-----------------|

G|-----------------|-----------------|-----------------|-----------------|
D|-----------------|-----------------|-----------------|-----------------|
A|/7---------------|-5-5---3---3-3-3-|/7---------------|-5-5---3---3-3-3-|
E|---0-0-0-0-0-0-0-|-----------------|---0-0-0-0-0-0-0-|-----------------|

************************************

| /   Slide up

************************************

            
            
Suggest correction
Creating personal tab
Creating personal tab
You can edit any tab online and save it as your Personal.

You can edit, replace or remove any tab part or add personal notes – all changes will be seen only by you.

Personal tabs can be accessed anytime from any device, even offline.
Learn more »
Give kudos to tab author, rate the tab!
1 2 3 4 5
comments
print report bad tab
guest
You may want to rate the tab now too:
select rating
Wanna post a correction for this tab? Suggest correction