Oops, an error
Loading. Please wait.

Rockin In The Free World Tab

version 5
version 5

Interactive

Video

63,813 views 48 this week
5 commentsread comments
1 2 3 4 5
x 16
add to favorites
×
Save as Personal and add changes to this tab that will be seen only by you. Learn more ›
×
You can save this tab as Personal to edit and correct it or add notes. All changes will be seen only by you. Learn more »
save as personal
new!
launch autoscroll
font size
0
reset
how to read this tab
guitar tuner
backing track
0:00
0:00
Autoscroll
slow
fast
+/-
esc
set tempo
stop
Author
Song: Rockin' in the Free World (TAB)
Artist: Neil Young
Album: Freedom, Weld, and others
(Electric Version)

Here is the correct version solo and all 
                                        
(PEARL JAM VERSION USE POWER CHORDS)
                                
whole song done with Neil Young distortion
[Intro]
    Em     D   C
e|---------2-2-0-0-|\
B|---------3-3-1-1-| \
G|---------2-2-0-0-|  \ 4x      
D|-2-2-2-2-0-0-2-2-|  /
A|-2-2-2-2-----3-3-| /
E|-0-0-0-0-----0-0-|/

[Verse 1]
    Em     D   C
e|---------2-2-0-0-|\
B|---------3-3-1-1-| \
G|---------2-2-0-0-|  \ 8x      
D|-2-2-2-2-0-0-2-2-|  /
A|-2-2-2-2-----3-3-| /
E|-0-0-0-0-----0-0-|/

[Chorus]
     G       D         C       Em
e|-3-3-3-3-2-2-2-2-0-0-0-0-0-0-0-0-|\
B|-3-3-3-3-3-3-3-3-1-1-1-1-1-1-0-0-| \
G|-0-0-0-0-2-2-2-2-0-0-0-0-0-0-0-0-|  \ 4x
D|-0-0-0-0-0-0-0-0-2-2-2-2-2-2-2-2-|  /
A|-2-2-2-2---------3-3-3-3-3-3-2-2-| / 
E|-3-3-3-3---------0-0-0-0-0-0-0-0-|/

[Interlude]
   G
e|-3-3-0-0-0-0-|\
B|-3-3-2-2-2-2-| \
G|-0-0-2-2-2-2-|  \    
D|-0-0-2-2-2-2-|  / 3x
A|-2-2-0-0-0-0-| /
E|-3-3---------|/

[Verse 2]
    Em     D   C
e|---------2-2-0-0-|\
B|---------3-3-1-1-| \
G|---------2-2-0-0-|  \ 8x      
D|-2-2-2-2-0-0-2-2-|  /
A|-2-2-2-2-----3-3-| /
E|-0-0-0-0-----0-0-|/

[Chorus]
     G       D         C       Em
e|-3-3-3-3-2-2-2-2-0-0-0-0-0-0-0-0-|\
B|-3-3-3-3-3-3-3-3-1-1-1-1-1-1-0-0-| \
G|-0-0-0-0-2-2-2-2-0-0-0-0-0-0-0-0-|  \ 4x
D|-0-0-0-0-0-0-0-0-2-2-2-2-2-2-2-2-|  /
A|-2-2-2-2---------3-3-3-3-3-3-2-2-| / 
E|-3-3-3-3---------0-0-0-0-0-0-0-0-|/

[Interlude]
   G
e|-3-3-0-0-0-0-|\
B|-3-3-2-2-2-2-| \
G|-0-0-2-2-2-2-|  \    
D|-0-0-2-2-2-2-|  / 3x
A|-2-2-0-0-0-0-| /
E|-3-3---------|/

[Solo]                    
e|-12-12-12-12-12-12-12---^^^^^^^^^-------------------------------|
B|-12-12-12-12-12-12----15--15-15-15-12-------^^^^^^^--12-------12|
G|--------------------------------------15-12-12-12h14----14-14---|
D|----------------------------------------------------------------|
A|----------------------------------------------------------------|
E|----------------------------------------------------------------|

e|-----------^^^^^12-15b15b15^^^15b---12--------------------------|
B|-12-------12----12---------------15-------------------14--------|
G|----14b14-14-14------------------------14-14-12-^^^^^-14-12-----|
D|------------------------------------------------14-14-----------|
A|----------------------------------------------------------------|
E|----------------------------------------------------------------|

e|-------------------------------0---------------------12-12-12-12|
B|-------------------------------0-15---------------15-15-15-15-15|
G|12----------12--^^^^^------12b14b---14-12-14b-14b---------------|
D|---14-12----12-14----14-14--------------------------------------|
A|---------14-----------------------------------------------------|
E|----------------------------------------------------------------|

e|-12-12---------^^^^^-12----12-12b---15-15^^^^14 15--------------|
B|-15-15-12-15-15---------15b---15b15----------------15-----------|
G|-------------------------------0-------------------15-----------|
D|----------------------------------------------------------------|
A|----------------------------------------------------------------|
E|----------------------------------------------------------------|

e|-15-14-12^^^^12^^^15-14-12----12-14-12-15b----------------------|
B|---------------------------15-----------------------------------|
G|----------------------------------------------------------------|
D|----------------------------------------------------------------|
A|----------------------------------------------------------------|
E|----------------------------------------------------------------|

[Last Verse] is different
e|---------------------------------|\
B|---------------------------------| \
G|---------------------------------|  \
D|---------------------------------|  / 8x
A|-----------------5-5-5-5-3-3-3-3-| /
E|-0-0-0-0-0-0-0-0-----------------|/

[Chorus]
     G       D         C       Em
e|-3-3-3-3-2-2-2-2-0-0-0-0-0-0-0-0-|\
B|-3-3-3-3-3-3-3-3-1-1-1-1-1-1-0-0-| \
G|-0-0-0-0-2-2-2-2-0-0-0-0-0-0-0-0-|  \ 4x
D|-0-0-0-0-0-0-0-0-2-2-2-2-2-2-2-2-|  /
A|-2-2-2-2---------3-3-3-3-3-3-2-2-| / 
E|-3-3-3-3---------0-0-0-0-0-0-0-0-|/

Suggest correction
comments
print report bad tab
5 comments total. Showing first comments.
0 reply
str84ever 674 Sep 03, 2007 08:41 AM

I have seen Pearl jam live and they don't use power chords. But anyway great tab.

0 reply
soldmysuol 64 Nov 13, 2007 07:23 AM

i think it sounds better as barre chords. but its probably just my preference.

+1 reply
mack attack 20 Apr 20, 2008 08:22 AM

Do you think I should view and print it in notepad? :)
Good tab though that's how I play it

guest
You may want to rate the tab now too:
select rating
Wanna post a correction for this tab? Suggest correction