Oops, an error
Loading. Please wait.

Slip Away Tab

version 1
version 1

Whole song

3,090 views 1 this week
no commentswrite comment
1 2 3 4 5
excellent!
x 6
add to favorites
launch autoscroll
font size
0
reset
how to read this tab
guitar tuner
Autoscroll
slow
fast
+/-
esc
set tempo
stop
Help us to improve Ultimate-Guitar.com Take our survey!
×
Chords:
  Dadd9      x x 0 11 10 0
  Dsus4add9  x x 0  0 10 0
  Dsus4      xx0233  
  Csus4      x33010
  Gsus4      3x0013   

Intro:  Dadd9 Dsus4add9             (4x)

  Am        Em        E       Am        G       Dm      F
||---------|---------|-------|---------|---3---|---1---|--1-1-0----|
||--1-1-0--|----0----|-------|--1-1-1--|---0---|---3---|--2-----2--|
||--2------|-------0-h-1--1--|--2------|---0---|---2---|--3--------|
||--2------|--2------|----2--|--2------|---0---|-------|--3--------|
||---------|--2------|----2--|---------|---2---|-------|--1--------|
||---------|---------|-------|---------|---3---|-------|--1--------|

   Am       Em       E        Am
||---------------|---------------|-
||--1-1-1-0------|----------0-1--|-
||----------2----|----1-1-2------|- (connect to below...)
||------------2--|--2------------|-
||---------------|---------------|-
||---------------|---------------|-

                   G                 Dm      F
                  -------------------1-1--|------1-0--------------||
                  -0-1-3-1-0-0-1-0--------|----0-----3p1-1---0-1--||
                  -----------------2------|--2-------------2------||
                  ------------------------|-----------------------||
                  ------------------------|-----------------------||
                  ------------------------|-----------------------||

        Csus4  Gsus4  Csus4  Gsus4  Csus4  Gsus4  Dsus4
        Dadd9 Dsus4add9              (4x)

Am                  Em
   She lives in the TV sky
E                     Am
   She lives in such pain
G                  Dm
   She rides in a bullet proof
F
   Stretch limosine


   The smoke in the bar room nights
   The faces in the window
   The sound of the harbor horn
   She recognized

Chorus:

Csus4
   And when the music started
   Gsus4
   She just slipped away
Csus4                           Gsus4
   Just like a river fallin down
Csus4
   And when the music started
   Gsus4
   She just slipped away
 Dsus4
   She just slipped away

High on a windy hill
The turbine did whine
Low in the valley chill
A baby is cryin

Impossible to take the time
The moment is near
Cry out from behind the pines
A voice coming near

(chorus)

||-----0-----------|---------------|-----------------|---------------||
||-------3-1-0-----|--0-0-0-1-3/5--|--3-3-1-0---0-1--|--1-1-0--------||
||-----------------|---------------|----------2------|--------0-0h2--||
||-----------------|---------------|-----------------|---------------||
||-----------------|---------------|-----------------|---------------||
||-----------------|---------------|-----------------|---------------||

||-----------------|---------------|-----------------|---------------||
||--1-1-0----------|--------0-0h1--|---0-0-1-3-------|--1-1-0--------||
||--------2-0------|----1-1--------|-----------0h2---|--------0-0h2--||
||------------2-2--|--2------------|-----------------|---------------||
||-----------------|---------------|-----------------|---------------||
||-----------------|---------------|-----------------|---------------||

(chorus)

Suggest correction
comments
print report bad tab
guest
You may want to rate the tab now too:
select rating
Please do not post tabs as comments. Select "correction" instead!