Oops, an error
Loading. Please wait.

Song X Tab

2,110 views 9 this week
no commentswrite comment
1 2 3 4 5
1 last vote to show rating
add to favorites
launch autoscroll
font size
0
reset
how to read this tab
guitar tuner
Autoscroll
slow
fast
+/-
esc
set tempo
stop
Help us to improve Ultimate-Guitar.com Take our survey!
×
Author
Difficulty
I'm sorried but it can be that the timing isn't great cos it's my first tab.

Intro:
e|------0----------0~------------------------|
b|------3----------3~------------------------|
g|------2----------2~---2-0------------------|
d|oh2~p0-0h2~0-0h2~--------2-2-0-------------|
a|-------------------------------0-----------|
e|-------------------0-2-----------0-1-2-2-0~|(drum starts here.)

Riff 1.
Hey ho, here we go, were on the road to never,
e|0~~~----------------------------------------2p0-|
b|0~~~-------------------------------------------2|
g|0~~~--------------------------------------------|
d|2~~~----------2~~0~~~~~~~~~~~~~~~~~~~~~~~~~~----|
a|2~~~--0~~~~~~~----------------------------------|
e|0~~~--------------------------------------------|

riff 2.
Where life's a joy for girls and boys it only will get better.
    e|-------------------------------------------------------|
    b|-------------------------------------------------------|
    g|---------------------------2~~~~~~~0~~~~~~~~~~~~~~~~~~-|
    d|-------------------------------------------------------|
    a|--------2~~~~~~~0~~~~~~~~~~----------------------------|
    e|0~~~~~~~~----------------------------------------------|

Chorus:
E   D   E       D        E       D       E     D
Hey ho, here we go, were on the road to never

Riff 3.
  Romeo and Juliet the doctor and his case
e|-------------------------------------------------2--|
b|----------------------------------------3~~~~~~~~-3-|
g|----------------------------2~~~~~~~~~~~-----------2|
d|---------------2----0~~~~~~~------------------------|
a|---2~~~~~0~~~~~-------------------------------------|
e|0~~-------------------------------------------------|

Riff 2.

Chorus.

Solo:
e|--0~~0-0~~-------------------------0-2-0-------------------|
b|-3~~~~~~~~3---------------0-3~~--3~~~~~~3-----------0------|
g|2~~~~~~~~~~2~~0--2-2-2--2------2~~~~~~~~~2-0----2-2---2-0--|
d|---------------3-----------------------------3~~----------3|
a|-----------------------------------------------------------|
e|-----------------------------------------------------------|

after the second solo do a couple of pullofs on the highest string and the 5th the 7th 
9th fret. I don't know exactly.

Riff 3.

Riff 2.

chorus.

Solo.

Riff 1.
riff 2. (tip use bridge pickup here!)
Suggest correction
Give kudos to tab author, rate the tab!
1 2 3 4 5
comments
print report bad tab
guest
You may want to rate the tab now too:
select rating
Wanna post a correction for this tab? Suggest correction