Oops, an error
Loading. Please wait.

Southern Man chords

version 2
version 2

Whole song

Interactive

19,403 views 33 this week
no commentswrite comment
1 2 3 4 5
x 5
add to favorites
×
Save as Personal and add changes to this tab that will be seen only by you. Learn more ›
×
You can save this tab as Personal to edit and correct it or add notes. All changes will be seen only by you. Learn more »
launch autoscroll
font size
0
reset
transpose
0
reset
simplify chords
display chords
guitar tuner
backing track
0:00
0:00
edit
Autoscroll
slow
fast
+/-
esc
set tempo
stop
Author
Difficulty
Strumming
There is no strumming pattern for this song yet. and get +5 IQ
-------------------------------------------------------------------------------
                             Southern Man - Neil Young
-------------------------------------------------------------------------------

Tabbed by: Beckett W
Email: beckett360@yahoo.com

Tuning: EADGBe Standard E

Chords:
Dm    xx0231
Bb    xx3331
Gm    xx5333
G7    320001
F7    xx3210
A     x02220

Intro / Main Riff (Different almost every time)
                     
       Dm            Bb      Gm
e|---0-0h1---3h1-3h1-----x-3--3-3h5----|
B|---3-3-----3---3---3-3-x-3--3-3------|
G|-2-2-2---2-2---2---3-3-x-3--3-3------|
D|-0-0-0---0-0---0---3-3-x-5-----------| x2
A|-----------------------x-------------|
E|-------------------------------------|

Chorus:

   Dm                   F7
Southern man better keep your head
   Bb                   G7
Don't forget what your good book said
   Dm                   F7
Southern change gonna come at last
   Bb                   G7
Now your crosses are burning fast

Southern Man

    Dm               Bb       Gm
e|---0-0h1---3h1-3h1-----x-3--3-3h5----|
B|---3-3-----3---3---3-3-x-3--3-3------|
G|-2-2-2---2-2---2---3-3-x-3--3-3------|
D|-0-0-0---0-0---0---3-3-x-5-----------| x2
A|-----------------------x-------------|
E|-------------------------------------|

Verse:

        Dm            Bb       Gm
e|-1-1--1-1-1-1-0-1-1-1-1--1--3-3h5--|
B|-3-3--3-3-3-3---3-3-3-3--3--3-3----|
G|-2-2--2-2-2-2---3-3-3-3--3--3-3----|
D|----------------3-3-3-3--3--5-5----| x3
A|-----------------------------------|
E|-----------------------------------|

A                       A
I heard screaming and bullwhips cracking
A                A
How long, how long, how long?

-------

Chorus:

   Dm                   F7
Southern man better keep your head
   Bb                   G7
Don't forget what your good book said
   Dm                   F7
Southern change gonna come at last
   Bb                   G7
Now your crosses are burning fast

Southern Man

       Dm            Bb      Gm
e|---0-0h1---3h1-3h1-----x-3--3-3h5----|
B|---3-3-----3---3---3-3-x-3--3-3------|
G|-2-2-2---2-2---2---3-3-x-3--3-3------|
D|-0-0-0---0-0---0---3-3-x-5-----------| x2
A|-----------------------x-------------|
E|-------------------------------------|

And repeat the verse

        Dm            Bb       Gm
e|-1-1--1-1-1-1-0-1-1-1-1--1--3-3h5--|
B|-3-3--3-3-3-3---3-3-3-3--3--3-3----|
G|-2-2--2-2-2-2---3-3-3-3--3--3-3----|
D|----------------3-3-3-3--3--5-5----| x3
A|-----------------------------------|
E|-----------------------------------|

 A                             A
I heard screaming and bullwhips cracking and
 A                    A
How long, how long, how long?

--------------

END
Suggest correction
Creating personal tab
Creating personal tab
You can edit any tab online and save it as your Personal.

You can edit, replace or remove any tab part or add personal notes – all changes will be seen only by you.

Personal tabs can be accessed anytime from any device, even offline.
Learn more »
comments
print report bad tab
guest
You may want to rate the tab now too:
select rating
Wanna post a correction for this tab? Suggest correction