Oops, an error
Loading. Please wait.

Stupid Girl intro tab

91 views 3 this week
no commentswrite comment
1 2 3 4 5
2 more votes to show rating
add to favorites
×
Save as Personal and add changes to this tab that will be seen only by you. Learn more ›
×
You can save this tab as Personal to edit and correct it or add notes. All changes will be seen only by you. Learn more »
launch autoscroll
font size
0
reset
how to read this tab
guitar tuner
edit
Autoscroll
slow
fast
+/-
esc
set tempo
stop
Author
Difficulty
Intro

After the muted E chord, play the 2/13 note with sustain on the 2nd fret followed 
by dragging the finger along the whole fretboard allowing the different notes to
ring out before getting to the 13th fret where the finger stops and adds vibrato

   E                    C   E                   C   E                      C  
e|----------------------------------------------------------------------------|
B|----------------------------------------------------------------------------|
G|-------2/13~-11h13-11\9~-------2/13~-11h13-11\9~-------2/13~-13-14-13\11\9~-|
D|-2-2-2--------------------2-2-2-------------------2-2-2---------------------|
A|-2-2-2--------------------2-2-2-------------------2-2-2---------------------|
E|-0-0-0--------------------0-0-0-------------------0-0-0---------------------|
   mute                     mute                    mute




Outro
This is played with two guitars, so this is a simplified version for one guitar, 
there also seems to be a an octave shift for the last section

e|-12-14------12---------------------9-9--9-9-7-5-4----------4---4-5-4-5-7-5-4------------------|
B|------14--14----14--12--12-14-12--------—--------5------5-7-----------------7-7---7-5---5-7-5~|
G|------------------13------------7-9---------------4--4-6------------------------4----6-6------|
D|----------------------------------------------------------------------------------------------|
A|----------------------------------------------------------------------------------------------|
E|----------------------------------------------------------------------------------------------|

            
            
Suggest correction
Creating personal tab
Creating personal tab
You can edit any tab online and save it as your Personal.

You can edit, replace or remove any tab part or add personal notes – all changes will be seen only by you.

Personal tabs can be accessed anytime from any device, even offline.
Learn more »
Give kudos to tab author, rate the tab!
1 2 3 4 5
comments
print report bad tab
guest
You may want to rate the tab now too:
select rating
Wanna post a correction for this tab? Suggest correction