Oops, an error
Loading. Please wait.

Unknown Legend intro tab

version 1
version 1

Intro

  • An accurate tab of the intro based on Justin Sandercoe's YouTube tutorial.

Whole song

Interactive

109 views 3 this week
no commentswrite comment
1 2 3 4 5
3 more votes to show rating
add to favorites
×
Save as Personal and add changes to this tab that will be seen only by you. Learn more ›
×
You can save this tab as Personal to edit and correct it or add notes. All changes will be seen only by you. Learn more »
launch autoscroll
font size
0
reset
how to read this tab
guitar tuner
edit
Autoscroll
slow
fast
+/-
esc
set tempo
stop
Author
Difficulty
About this tab version
An accurate tab of the intro based on Justin Sandercoe's YouTube tutorial. Was this info helpful? Yes No
Music: Neil Young
Album: Harvest Moon 1992
Tuning: Standard
Tabbed by Robert Saunders

This tab is based on the YouTube tutorial for this song by Justin Sandercoe:
https://www.youtube.com/watch?v=P95GwVtkgTI

The beat is indicated by the * symbol. All the notes and chords on the beat are played with the thumb in a 
down-stroke. Notes and chords played on the off-beat are played with the first finger in a up-stroke.

The outro is the same as the first 9 bars of the intro.

[Intro]
   G                G                G                G
e|----------------|-----3-----3-3-3|-----3----------|-----3-----3-3-3|
B|----------------|-----0-----0-0-0|-----0----------|-----0-----0-0-0|
G|----------------|-----0-----0-0-0|-----0----------|-----0-----0-0-0|
D|---------------0|-----0-----0-0-0|-----0---------0|-----0-----0-0-0|
A|---------2-3----|-----2-----2-2-2|-----2---3---2--|-----2-----2-2-2|
E|----------------|-3---3---3---3--|-3---3----------|-3---3---3---3--|
   *   *   *   *    *   *   *   *    *   *   *   *    *   *   *   *

   G                G                G                C
e|----------------|-----3-----3-3-3|-----3----------|-----0---0-0-0-0|
B|----------------|-----0-----0-0-0|-----0----------|-----1---1-1-1-1|
G|----------------|-----0-----0-0-0|-----0----------|-----0---0-0-0-0|
D|---------------0|-----0-----0-0-0|-----0----------|-----2---2-2-2-2|
A|---------2-3----|-----2-----2-2-2|-----2---3---2--|-----3---3-3-3-3|
E|----------------|-3---3---3---3--|-3---3---------0|----------------|
   *   *   *   *    *   *   *   *    *   *   *   *    *   *   *   *
                
   C                G                
e|-0---0----------|-----3-----3-3-3|
B|-1---1----------|-----0-----0-0-0|
G|-0---0----------|-----0-----0-0-0|
D|-2---2---------0|-----0-----0-0-0|
A|-3---3----------|-----2-----2-2-2|
E|---------0---3--|-3---3---3---3--|
   *   *   *   *    *   *   *   *


**************************************************

| * - beat

**************************************************

            
            
Suggest correction
Creating personal tab
Creating personal tab
You can edit any tab online and save it as your Personal.

You can edit, replace or remove any tab part or add personal notes – all changes will be seen only by you.

Personal tabs can be accessed anytime from any device, even offline.
Learn more »
Give kudos to tab author, rate the tab!
1 2 3 4 5
comments
print report bad tab
guest
You may want to rate the tab now too:
select rating
Wanna post a correction for this tab? Suggest correction