Oops, an error
Loading. Please wait.

Unknown Legend Tab

version 1
version 1

Whole song

Interactive

62,824 views 99 this week
6 commentsread comments
1 2 3 4 5
x 23
add to favorites
launch autoscroll
font size
0
reset
how to read this tab
guitar tuner
Autoscroll
slow
fast
+/-
esc
set tempo
stop
Help us to improve Ultimate-Guitar.com Take our survey!
×
Unknown Legend : Harvest Moon : Neil Young


Intro Riff:  C B D  X3             "<>" = Chord
             C B E  X1
             E G D  X1


In Tab it looks like:

             Strum G chord             Strum...
e|-----------3-------------------------3------------------3----|
B|-----------0-------------------------0------------------0----|
G|-----------0--------------------------0------------------0---|
D|--------0--0---------------------0---0---------------0--0----|
A|-2--3------2---------------2--3------2---------2--3-----2----|
E|-----------3-------------------------3------------------3----|


             Strum C chord                Strum G chord
e|-----------0----------------------------3----|
B|-----------1----------------------------0----|
G|-----------0----------------------------0----|
D|-----------2--------------------0-------0----|
A|-3--2------3----------------------------2----|
E|-------0---0--------------0--3----------3----|


              G
She used to work in a diner, never saw a woman look finer
                                                  C
I used to order just to see her float across the floor.
                   G
She grew up in a small town, never put her roots down.
                             C
Daddy kept movin so she did too.

[Chorus]
                          G                   C       G
Somewhere on a desert highway, she rides a harley davidson
                                       C
Her long blonde hair  flyin' in the wind.
                               G
She's been runnin half of her life.
                  C       G
The chrome and steel she rides,
                                    C                       G
collidin' with the very air she breathes, the air she breathes.

     Repeat Intro Riff

You know it's ain't easy, you got to hold on.
She was an unknown legend in her time.
Now whe's dressin' two kids, lookin' for that magic kiss.
She gets that far away look in her eyes.

    Repeat Chorus
Suggest correction
comments
print report bad tab
6 comments total. Showing first comments.
-2 reply
girl_guitarist 10 Sep 11, 2008 05:06 AM

good song but you got the intro tab wrong it should be

-----------3-------------------------3------------------3----|
-----------0-------------------------0------------------0----|
-----------0--------------------------0------------------0---|
--------0--0---------------------0---0---------------0--0----|
-3--2------2---------------3--2------2---------3--2-----2----|
-----------3-------------------------3------------------3----|

+1 reply
girl_guitarist 10 Sep 11, 2008 05:07 AM

sorry ignore that :)

0 reply
riderrob 10 Apr 07, 2013 06:08 PM

i am having trouble with the strumming pattern. Any help?

guest
You may want to rate the tab now too:
select rating
Wanna post a correction for this tab? Suggest correction