Oops, an error
Loading. Please wait.

Getting Evil In The Playground Tab

23 views 1 this week
no commentswrite comment
1 2 3 4 5
3 more votes to show rating
add to favorites
launch autoscroll
font size
0
reset
how to read this tab
guitar tuner
Autoscroll
slow
fast
+/-
esc
set tempo
stop
Help us to improve Ultimate-Guitar.com Take our survey!
×
Difficulty
novice
GETTING EVIL IN THE PLAYGROUND
CHANGE RETURN SUCCESS MINI ALBUM

INTRO:
|-------------55------------------------55--------------|
|-------55-77----7-55-777---------55-77----7-55-777-----|
|-55-77--------------------55-77------------------------|
|-------------------------------------------------------|
|-------------------------------------------------------|
|-------------------------------------------------------|


VERSE:
A
When you say, it's not OK,
     Bb    C   
then I say that it is
A
When you say, come out to play,
     Bb    G
then i say that I've been

A
When you say, the sky is grey
     Bb    C
then I say that it's blue
A
When you say, it must be me
     Bb    G         C
then I say that it's you

They say opposites attract
well i think that is wrong
I say opposites repel
the whole thing is a con

The further away you are
the happier I am
Although I do this to you
simply because I can


CHORUS:
A      Bb        B         C
When I say these things to you
     C#    D        G   D  C#   D 
It's not a jest - I really mean it

If I don't stop, what will you do
there's no way out
We've already been here
already been here


VERSE:
They say opposites attract
well i think that is wrong
I say opposites repel
the whole thing is a con

The further away you are
the happier I am
Although I do this to you
simply because I can

We've already been here before 

OUTRO:
intro with one variation
|-------------55------------------------55----------55-----|
|-------55-77----7-55-777---------55-77----7-55-777----777-|
|-55-77--------------------55-77---------------------------|
|----------------------------------------------------------|
|----------------------------------------------------------|
|----------------------------------------------------------|
Suggest correction
Give kudos to tab author, rate the tab!
1 2 3 4 5
comments
print report bad tab
guest
You may want to rate the tab now too:
select rating
Wanna post a correction for this tab? Suggest correction