Oops, an error
Loading. Please wait.

Etre Humain intro tab

by Nekfeu
1,663 views 24 this week
no commentswrite comment
1 2 3 4 5
x 3
add to favorites
×
Save as Personal and add changes to this tab that will be seen only by you. Learn more ›
×
You can save this tab as Personal to edit and correct it or add notes. All changes will be seen only by you. Learn more »
launch autoscroll
font size
0
reset
how to read this tab
guitar tuner
edit
Autoscroll
slow
fast
+/-
esc
set tempo
stop
Author
Difficulty
Nekfeu - Etre Humain (tab)

J'ai arrangé les tablatures existantes sur internet pour que ceci soit plus facile et plus rapide à jouer ...
Du coup le morceau se joue avec un barré en 7ème case pour les 2 premières mesures puis on reviens en première
position pour les deux dernières ... 
Voilà bon morceau :)     WisBro


[Intro]

e|---------------------------|-------------7--------------|
B|--------------8---10---8---|-----------------8----------|
G|----------7----------------|---------------------7------|
D|------9--------------------|------9------------------9--|
A|--7------------------------|--7-------------------------|
E|---------------------------|----------------------------|

e|---------------------------|----------------------7-----|
B|--------------7---10---7---|-------------7--------------|
G|----------7----------------|---------7------------------|
D|------7--------------------|----------------------------|
A|---------------------------|-----7----------------------|
E|--7------------------------|--7-------------------------|

e|-----------------------0---|-----------------------0----|
B|--------------3------------|-------------------3--------|
G|----------0----------------|---------------0------------|
D|------2--------------------|-----------2----------------|
A|--3------------------------|---3---3--------------------|
E|---------------------------|----------------------------|

e|-----------------0---5-----|-------------------0---5----|
B|-------------3-------------|---------------3------------|
G|----0----------------------|----------------------------|
D|---0-----------------------|-----0----------------------|
A|--3------------------------|----------------------------|
E|---------------------------|----------------------------|

Et ceci est répété jusqu'à la fin du morceau !
Si vous trouvez une meilleure façon de le jouer dites le moi dans les com' je jetterai un coup d'oeil !
Musicalement, WisBro.

 

            
            
Suggest correction
Creating personal tab
Creating personal tab
You can edit any tab online and save it as your Personal.

You can edit, replace or remove any tab part or add personal notes – all changes will be seen only by you.

Personal tabs can be accessed anytime from any device, even offline.
Learn more »
Give kudos to tab author, rate the tab!
1 2 3 4 5
comments
print report bad tab
guest
You may want to rate the tab now too:
select rating
Wanna post a correction for this tab? Suggest correction