Oops, an error
Loading. Please wait.

Im An Animal Chords

6,072 views 1 this week
2 commentsread comments
1 2 3 4 5
x 4
add to favorites
launch autoscroll
font size
0
reset
transpose
0
reset
display chords
guitar tuner
Autoscroll
slow
fast
+/-
esc
set tempo
stop
Help us to improve Ultimate-Guitar.com Take our survey!
×
Difficulty
novice
Im An Animal
Neko Case
Middle Cyclone

Intro/Outro:
|----------------------------------------------|
|-----2---2---2---2----0---0---0---------------|
|---3---3---3---3----2---2---2-----------------|
|----------------------------------------------|
|----------------------------------------------|
|----------------------------------------------|


Verse 1:
        F                      C
You can say it's my instinct
Yes, I still have one
F                                  C
There's no time to second guess it
   F                                 C
Yes, there are things that I'm still so afraid of
But my courage is roaring like the sound of the sun
Cause it's vain above its mane and will reveal them to no one

Chorus:
       F
I'm an animal
C                     F        C       F
You're an animal too

Am                     E
Pick up that rock Drink from that lake
F                     C
I'll do my best but I made a mistake
F                           C
Yes there are things I'm still quite sure of
     Am
I love you this hour
   E
This hour today
   F                          C
And heaven will smell like the airport
       F                      C
But I may never get there to prove it
         F                           C
So let's not waste our time thinking how that ain't fair


Chorus
Suggest correction
comments
print report bad tab
2 comments total.
0 reply
shasta92 114 Nov 06, 2009 03:58 PM

e|----------------------------------------------|
B|----------------------------------------------|
G|-----2---2---2---2----0---0---0---------------|
D|---3---3---3---3----2---2---2-----------------|
A|----------------------------------------------|
E|----------------------------------------------|

0 reply
sphokazib 10 Aug 23, 2014 05:57 PM

it's "i do my best but i'm made of mistakes" not "i'll do my best but i made a mistake"

guest
You may want to rate the tab now too:
select rating
Wanna post a correction for this tab? Suggest correction