Oops, an error
Loading. Please wait.

Alive Tab

version 1
version 1

Whole song

Interactive

3,495 views 1 this week
no commentswrite comment
1 2 3 4 5
please rate
add to favorites
launch autoscroll
font size
0
reset
how to read this tab
guitar tuner
Autoscroll
slow
fast
+/-
esc
set tempo
stop
Help us to improve Ultimate-Guitar.com Take our survey!
×
Contributor
intro and chorus riff
|-8p5p0---8p7p5p0---8p5p0--8p7p5p0----8p5--8p5-----10p7---10p7-------|
|----------------------------------------6----6--------8------8------|
|--------------------------------------------------------------------|
|--------------------------------------------------------------------|
|--------------------------------------------------------------------|
|--------------------------------------------------------------------|

verse
|-0---1---3---0-------------|--------5-------------------------------|
|-1---1---3---1---10---12---|------5--------10----12-12--------------|
|-2---2---4---2---10---12---|-----5---------10----12----12-----------|
|-2---3---5---2---10---12---|----7----------10----12-------12--------|
|-0---3---5---0---8----10---|-0-------------8-----10-----------------|
|-----1---3-----------------|----------------------------------------|

chord based middle 8: guitar 1
|---5-------1------3-------8-----------------------------------------|
|---5-------1------3-------10----13--15------------------------------|
|---5-------1------3-------9-----13--15------------------------------|
|--------------------------------------------------------------------|
|--------------------------------------------------------------------|
|--------------------------------------------------------------------|

chord based middle 8: guitar 2
|--------------------------------------------------------------------|
|--------------------------------------------------------------------|
|--------------------------------------------------------------------|
|-------------------------------repeat 4 times ----------------------|
|-00000--00000--55555--55555-----------------------------------------|
|-00000--00000--66666--33333-----------------------------------------|

solo 
........rake
|-------5-5--5---------------------------------------------5---5-----5-7-------|
|-------5---8----8-5---5----------------------------------5-5-8---8^-----8-----|
|---7^---------------7---7^---5-7-5-4------------5---5--7^-----------------7-5-|
|-------------------------------------5---------7--7---------------------------|
|---------------------------------------7s------------------------------------|
|------------------------------------------------------------------------------|

|-------5----------------5---------------------------------------------------------------------|
|-----5---8-5----------5---8-5--------10-12-13-12-13-15----15^-15-13----15----13------5--------|
|--7^---------7^--7-7^---------7^------------------------------------14----14----14-----7--5---|
|--------------------------------------------------------------------------------------------7-|
|----------------------------------------------------------------------------------------------|
|----------------------------------------------------------------------------------------------|

end solo
|---------------------------------------------------------------------------------------------------|
|---5-----------------------------5----------------------------5------------------------5-----------|
|7^---7--5-4-------5---5-7--5-7^----7-5-4--------5---5-7--5-7^---7-5-4-----5---5-7-5-7^---7-5-4-----|
|------------5-7-----7----------------------5-7----7-------------------5-7---7------------------5-7-|
|---------------------------------------------------------------------------------------------------|
|---------------------------------------------------------------------------------------------------|

|------------------------------------5-------5---|
|-------5--------------------------5---5--8^-----|
|--5-7^---7---4------5---5-7--5-7^---------------|
|----------------7-----7-------------------------|
|------------------------------------------------|
|------------------------------------------------|

|--8-7-5---8-7-5--7-8-8s/10--8-10---12-10-12--15-13-15--17------|
|------------------------------------------------------trem pick|
|---------------------------------------------------------------|
|---------------------------------------------------------------|
|---------------------------------------------------------------|
|---------------------------------------------------------------|

|--20-19-17- repeat 7 times -------17-----17--|
|------------------------------20^----20^-----|
|---------------------------------------------|
|---------------------------------------------|
|---------------------------------------------|
|---------------------------------------------|

|--20-19-17- repeat 3 times -----17-----17-|--20-19-17----17----17-|
|----------------------------20^----20^----|-----------20^--20^----|
|------------------------------------------|-----------------------|
|------------------------------------------|-----------------------|
|------------------------------------------|-----------------------|
|------------------------------------------|-----------------------|

|--20-19-17- repeat 5 times -----17------17---|
|----------------------------20^-----20^------|
|---------------------------------------------|
|---------------------------------------------|
|---------------------------------------------|
|---------------------------------------------| 
comments
We did not receive enough feedback on this tab! Please rate:
print report bad tab
1 2 3 4 5
I want to post or [tab]
guest
You may want to rate the tab now too:
select rating
Please do not post tabs as comments. Select "correction" instead!