Oops, an error
Loading. Please wait.

Dead Girls Dont Cry Tab

4,989 views 1 this week
no commentswrite comment
1 2 3 4 5
x 3
add to favorites
launch autoscroll
font size
0
reset
how to read this tab
guitar tuner
Autoscroll
slow
fast
+/-
esc
set tempo
stop
Help us to improve Ultimate-Guitar.com Take our survey!
×
nekromantix- dead girls don't cry
tabbed by: christine

i think part of the solo is a little off but i can't figure it out :(
otherwise, i'm pretty sure this is very accurate. enjoy


intro
----------------------------------|
-------5--------------------------|
---------5----------------5---4---|
-6/7-------7---6/7-6---6--6---6---|
---0----------0------7----7---7---|
----------------------------------|


verse
---------------------------0---|
---------------------------0---|
------------------------0--1---|
--------2---------1--0-----2---|
-0--2-3----3-2-0--2------------|
-------------------------------|

---------------------------0---|
---------------------------0---|
------------------------0--1---|
--------2------------0-----2---|
-0--2-3-----------2------------|
-------------------------------|

bridge
-1---0---1---0---0---|
-1---1---1---1---0---|
-2---2---2---0---1---|
-3---2---3---2---2---|
-----0-------3-------|
---------------------|

chorus
--0----2----1----0--0--|
--1----3----1----1--0--|
--2----2----2----0--1--|
--2----0----3----2--2--|
--0--------------3-----|
-----------------------|

verse (with some improv)

bridge

solo (not perfect)
------------------------------------------------|
------------------------------------------------|
------------------------------------------------|
----------------------------------7---7h9^10^9--|
----5-7^8^-7-5-7^8^7---5-7/9-7-9---9------------|
--7---------------------------------------------|

-------------------------------|
-------------------------------|
-------------------------------|
------------------------8---5--|
----5-7^8^7-7-5-7^8^7---8---5--|
--7---------------------6---3--|


-----8----7----0----8---7---0---8---7---0---8---7---0-|
--10---10---10----9---9---9---8---8---8---7---7---7---|
------------------------------------------------------|
------------------------------------------------------|
------------------------------------------------------|
------------------------------------------------------|

chorus
Suggest correction
Give kudos to tab author, rate the tab!
1 2 3 4 5
comments
print report bad tab
guest
You may want to rate the tab now too:
select rating
Wanna post a correction for this tab? Suggest correction