Oops, an error
Loading. Please wait.

Haunted Cathouse Tab

version 2
version 2

Whole song

Interactive

9,329 views 15 this week
1 commentread comment
1 2 3 4 5
accurate
x 5
add to favorites
launch autoscroll
font size
0
reset
how to read this tab
guitar tuner
Autoscroll
slow
fast
+/-
esc
set tempo
stop
Help us to improve Ultimate-Guitar.com Take our survey!
×
Author
Nekromantix - Haunted Cathouse
Album: Return of the Loving Dead 

Standard Tuning

Intro:
                                   
E|--------------|--2--1--0-----|--2--1--0-----|--------------|
B|--------------|--2--2--2-----|--2--2--2-----|--------------|
G|--------------|--------------|--------------|--------------|
D|--------------|--------------|--------------|--------------|
A|--------------|--------------|--------------|--------------|
E|--0--1--2--3--|--------------|--------------|--0--1--2--3--|

E|--2--1--0-----|--------------|--------------|--------------|
B|--2--2--2-----|--------------|--------------|--------------|
G|--------------|--------------|--------------|--------------|
D|--------------|--777777------|--------------|--------------|
A|--------------|--555555------|--5-—3--------|-----5--3-----|
E|--------------|--------------|--------6--3--|-----------6--|

E|--------------|--------------|--------------|--------------|
B|--------------|--------------|--------------|--------------|
G|--------------|--------------|--------------|--------------|
D|--------------|--------------|--3-----------|------3-----4-|
A|--3--------6--|-----3-----3/5|--------3-----|-3/5-----5----|
E|-----6--3-----|--6-----6-----|-----6-----6--|--------------|

E|--------------|--------------|--------------|--------------|
B|--------------|--------------|--------------|--------------|
G|--------------|--------------|--------------|--------------|
D|--------------|--------------|--------------|--------------|
A|--5--3--------|-----5--3-----|--3--------6--|-----3-----3/5|
E|-------6--3---|-----------6--|-----6--3-----|--6-----6-----|

E|--------------|--------------|--------------|--------------|
B|--------------|--------------|--------------|--------------|
G|--------------|--------------|--------------|--------------|
D|-3------------|------3-----4-|-----5--7-----|--------------|
A|--------3-----|-3/5-----5----|--5-----------|--------------|
E|-----6-----6--|--------------|--------------|--------------|


Verse:

                        
E|---3--3--3---3----------3--3--3---3----------6------6-------
B|---3--3--3------3-------4--4--4------4----------6h8----6----
G|---3--3--3---------3----3--3--3---------3-----------------6—
D|------------------------------------------------------------
A|------------------------------------------------------------
E|------------------------------------------------------------

E|--------8---------10------------3--3--3---3---------3--3----
B|-----------7----------7---------3--3--3------3------4--4----
G|--6/7---------7----------7------3--3--3---------3---3--3----
D|------------------------------------------------------------
A|------------------------------------------------------------
E|------------------------------------------------------------

E|--3--------3-----------6-------6--------------8-------------
B|-----4--------4-----------6h8-----6--------------7----------
G|--------3---------3------------------6---6/7--------7-------
D|------------------------------------------------------------
A|------------------------------------------------------------
E|------------------------------------------------------------

E|--3--3--5--4--3-------3--3--5--4--3------------6-------6----
B|--3--3--3--3-----3----4--4—-4--4-----4------------6h8-------
G|--3--3--3--3----------3--3--3--3----------6h7---------------
D|------------------------------------------------------------
A|------------------------------------------------------------
E|------------------------------------------------------------

E|-------6-------6----10--10-10--10-10-10---------------------
B|----------6/8-------10--10-10--10-10-10---------------------
G|--6h7---------------11--11-11--11-11-11---------------------
D|------------------------------------------------------------
A|------------------------------------------------------------
E|------------------------------------------------------------

Chorus:

Gmin, Amaj#, D7# (top strings only)


E|--------------|--------------|
B|--------------|--------------|
G|--------------|--------------|
D|--------------|--------------|
A|--5-—3--------|-----5--3-----|
E|--------6--3--|-----------6--|

E|--------------|--------------|--------------|--------------|
B|--------------|--------------|--------------|--------------|
G|--------------|--------------|--------------|--------------|
D|--------------|--------------|--3-----------|------3-----4-|
A|--3--------6--|-----3-----3/5|--------3-----|-3/5-----5----|
E|-----6--3-----|--6-----6-----|-----6-----6--|--------------|

E|--------------|--------------|--------------|--------------|
B|--------------|--------------|--------------|--------------|
G|--------------|--------------|--------------|--------------|
D|--------------|--------------|--------------|--------------|
A|--5--3--------|-----5--3-----|--3--------6--|-----3-----3/5|
E|-------6--3---|-----------6--|-----6--3-----|--6-----6-----|

E|--------------|--------------|--------------|--------------|
B|--------------|--------------|--------------|--------------|
G|--------------|--------------|--------------|--------------|
D|-3------------|------3-----4-|-----5--7-----|--------------|
A|--------3-----|-3/5-----5----|--5-----------|--------------|
E|-----6-----6--|--------------|--------------|--------------|

E|---3--3--3---3----------3---------3----------6------6-------
B|---3--3--3------3-------4---4--------4----------6h8----6----
G|---3--3--3---------3----3------3--------3-----------------6—
D|------------------------------------------------------------
A|------------------------------------------------------------
E|------------------------------------------------------------

E|--------8---------10------------3--3--5--4--3-------3--3----
B|-----------7----------7---------3--3--3--3-----3----4--4----
G|--6/7---------7----------7------3--3--3--3----------3--3----
D|------------------------------------------------------------
A|------------------------------------------------------------
E|------------------------------------------------------------

E|--3--3--5--4--3--------------6-------6-------6--------------
B|--4--4--4--4-----4--------------6h8-------------6h8---------
G|--3--3--3--3------------6h7-------------6h7-----------------
D|------------------------------------------------------------
A|------------------------------------------------------------
E|------------------------------------------------------------

E|--10--10-10--10-10-10---------------------------------------
B|--10--10-10--10-10-10---------------------------------------
G|--11--11-11--11-11-11---------------------------------------
D|------------------------------------------------------------
A|------------------------------------------------------------
E|------------------------------------------------------------

Chorus:

Intro:

That’s as far as I got.
Suggest correction
What's this?
You can suggest a correction to this tab. Community and Mods will review your correction and vote to approve or reject it.
comments
print report bad tab
1 comment total.
0 reply
thrashusmaximus 136 wrote on April 17 2012, 10:25 pm

lovin it, nice little licks here! :)

guest
You may want to rate the tab now too:
select rating
Please do not post tabs as comments. Select "correction" instead!