Oops, an error
Loading. Please wait.

Subliminal Controll Tab

133 views 1 this week
no commentswrite comment
1 2 3 4 5
2 more votes to show rating
add to favorites
launch autoscroll
font size
0
reset
how to read this tab
guitar tuner
Autoscroll
slow
fast
+/-
esc
set tempo
stop
Help us to improve Ultimate-Guitar.com Take our survey!
×
Author
Difficulty
Tuning
intermediate
C# G# C# F# A# D#
Subliminal controll: Nekropathy
Drop C# 

Guitar #1 (intro)
|-----------------|-----------------|----------------|-----------|
|-----------------|-----------------|----------------|-----------|
|-----------------|-----------------|----------------|-----------|
|-----777-666-----|-----333-222-----|-----777-666----|-333-333-2-|
|-555---------888-|-111---------444-|-555---------888|-111-111-0-|
|-----------------|-----------------|----------------|-----------|

Guitar #2 (Intro)
|-----------------|-----------------|----------------|-----------|
|-----------------|-----------------|----------------|-----------|
|-9))-------------|-5))-------------|-9))------------|-----------|
|-7))-------------|-3))-------------|-7))------------|-333-333-2-|
|-5))-------------|-1))-------------|-5))------------|-111-111-0-|
|-0))-------------|-----------------|-0))------------|-----------|

Guitar #1 (chorus+verse )
|------------|------------------|-----------|-----------|
|------------|------------------|-----------|-----------|
|------------|------------------|-----------|-----------|
|------------|---------5--------|-777-777-6-|-777-777-3-|
|-/9-6-/8-5--|-4---------8-7-5--|-555-555-4-|-555-555-1-|
|------------|---8-7-8----------|-----------|-----------|

Guitar #2 (chorus+verse)
|------------|------------------|-----------|-----------|
|------------|------------------|-----------|-----------|
|------------|------------------|-----------|-----------|
|-4--1--3--0-|---------5--------|-777-777-6-|-777-777-3-|
|-4--1--3--0-|-4---------8-7-5--|-555-555-4-|-555-555-1-|
|-4--1--3--0-|---8-7-8----------|-----------|-----------|

Guitar #1 (post Chorus)
|-----------------|-------------------|-----------------|----------|
|-----------------|-------------------|-----------------|----------|
|-----------------|------------7h10p7-|-----------------|----------|
|-----------------|-----7h10p7--------|-----------------|-----7-6--|
|-----5h8p5-4h7p4-|-------------------|-----5h8p5-4h7p4-|-----7-6--|
|-0-0-------------|-0-0---------------|-0-0-------------|-0-0-7-6--|

Guitar #2 (Post Chorus)
|-----------------|-------------------|-----------------|----------|
|-----------------|-------------------|-----------------|----------|
|-----------------|-------------------|-----------------|----------|
|-----7-----6-----|-----7------7------|-----7----6------|-----7-6--|
|-----5-----4-----|-----5------5------|-----5----4------|-----7-6--|
|-0-0-------------|-0-0---------------|-0-0-------------|-0-0-7-6--|
Suggest correction
Give kudos to tab author, rate the tab!
1 2 3 4 5
comments
print report bad tab
guest
You may want to rate the tab now too:
select rating
Wanna post a correction for this tab? Suggest correction