Oops, an error
Loading. Please wait.

Body On Me Tab

version 1
version 1

Whole song

3,938 views 1 this week
1 commentread comment
1 2 3 4 5
3 more votes to show rating
add to favorites
launch autoscroll
font size
0
reset
how to read this tab
guitar tuner
Autoscroll
slow
fast
+/-
esc
set tempo
stop
Help us to improve Ultimate-Guitar.com Take our survey!
×
Author
-------------------------------------------------------------------------------
                             Body On Me- Nelly feat. Ashanti and Akon-------
Tabbed by:josh.p
Email:

Tuning:

e|---------3--3--5-----------------------------------------------------------|
B|---------4--4--6-----------------------------------------------------------|
G|---------5--5--7----7--10--10--8-------------------------------------------|
D|---------5--5--7-----------------------------------------------------------|
A|---------3--3--5----5--8---7---5-------------------------------------------|
E|---------------------------------------------------------------------------|
Suggest correction
Give kudos to tab author, rate the tab!
1 2 3 4 5
comments
print report bad tab
1 comment total.
0 reply
rats&rats4candy 52 Jul 25, 2009 10:54 PM

whoaaa.. a lil off

e|---------3--3--5-------------------------------------------|
B|---------4--4--6-----------10--8---------------------------|
G|---------5--5--7----7--10----------------------------------|
D|---------5--5--7-----------7---5---------------------------|
A|---------3--3--5----5--8-----------------------------------|
E|-----------------------------------------------------------|

You had the right idea, but someone should figure out the rest.

guest
You may want to rate the tab now too:
select rating
Wanna post a correction for this tab? Suggest correction