Oops, an error
Loading. Please wait.

Do It Bass Tab

1,713 views 1 this week
no commentswrite comment
1 2 3 4 5
please rate
add to favorites
launch autoscroll
font size
0
reset
guitar tuner
Autoscroll
slow
fast
+/-
esc
set tempo
stop
Help us to improve Ultimate-Guitar.com Take our survey!
×
Author
This riff loops throughout the song

G|----------------------------------------------------------|
D|---8--11------8--6--4-----8--11---------------------------|
A|----------9----------------------9----6--8--9-------------|
E|----------------------------------------------------------|


Interlude:

G|------------------------------------------------|
D|--8--11-----8--11------8-11---------------------|
A|---------9---------9---------9---6-8-9----------|
E|------------------------------------------------|

Suggest correction
Give kudos to tab author, rate the tab!
1 2 3 4 5
comments
print report bad tab
guest
You may want to rate the tab now too:
select rating
Wanna post a correction for this tab? Suggest correction