Oops, an error
Loading. Please wait.

Maneater Tab

version 1
version 1

Whole song

Interactive

17,299 views 6 this week
no commentswrite comment
1 2 3 4 5
excellent!
x 7
add to favorites
launch autoscroll
font size
0
reset
how to read this tab
guitar tuner
Tab Pro tools
  • play this tab
  • loop segment
  • change instrument
  • show fretboard
  • metronome
×
Best way to learn
"Maneater"
Autoscroll
slow
fast
+/-
esc
set tempo
stop
Contributor
Difficulty
novice
Song Title: Maneater 
Artist/Band: Nelly Furtado 
Album: Loose, 2006.

Tab by JC Rea(jcrp_21@hotmail.com)


 

Symbols:

h=hammer-on
p=pull-off
()=let ring

Tuning:Standard



"Take it back, take it back..." 


1st VERSE (with distortion): 

"Everybody look at me, me 
e|-------------------|
B|-------------------|
G|-------------------|
D|-------------------|
A|-------------------|
E|-7p6h8p6h9p6--6-6--|


"I walk in the door you start screaming 
e|---------------------|
B|---------------------|
G|---------------------|
D|---------------------|
A|---------------------|
E|-6--7p6h8p6h9p6--6-6-|


"Come on everybody whatchu here for?
e|---------------------|
B|---------------------|
G|---------------------|
D|---------------------|
A|---------------------|
E|-6--7p6h8p6h9p6--6-6-|


"Move your body around like a nympho
e|---------------------|
B|---------------------|
G|---------------------|
D|---------------------|
A|---------------------|
E|-6--7p6h8p6h9p6--6-6-|

 
"Everybody get your necks to crack around 
e|----------------------------|
B|----------------------------|
G|----------------------------|
D|-----------------8-6--------|
A|---------------------8-6----|
E|-6--7p6h8p6h9p6----------9--|


"All you crazy people come on jump around 
e|----------------------------|
B|----------------------------|
G|----------------------------|
D|-----------------8-6--------|
A|---------------------8-6----|
E|-6--7p6h8p6h9p6----------9--|


"I want to see you all on your knees
e|----------------------------|
B|----------------------------|
G|----------------------------|
D|-----------------8-6--------|
A|---------------------8-6----|
E|-6--7p6h8p6h9p6----------9--|


 
"you either want to be with me, or be me
e|----------------------------|
B|----------------------------|
G|----------------------------|
D|-----------------8-6--------|
A|---------------------8-6----|
E|-6--7p6h8p6h9p6----------9--|



1st CHORUS (x2):

    F#5                Fm5
 "Maneater, make you work hard 
e|------------------------------|
B|------------------------------|
G|------------------------------|
D|-(4)---------------(3)--------|
A|-(4)---------------(3)--------|
E|-(2)---------------(1)--------|
   

                  G#5
 "Make you spend hard 
e|-----------------------|
B|-----------------------|
G|-----------------------|
D|---------------(6)-----|
A|---------------(6)-----|
E|---------------(4)-----|


                   A#m5
Make you want all, of her love
e|----------------------|
B|----------------------|
G|----------------------|
D|-----------------(8)--|
A|-----------------(8)--|
E|-----------------(6)--|


            F#5
 "She's a maneater 
e|-------------------|
B|-------------------|
G|-------------------|
D|--------(4)--------|
A|--------(4)--------|
E|--------(2)--------|


            Fm5
 "make you buy cars 
e|--------------------|
B|--------------------|
G|--------------------|
D|---------(3)--------|
A|---------(3)--------|
E|---------(1)--------|


                G#5
 "make you cut cords
e|---------------------|
B|---------------------|
G|---------------------|
D|-------------(6)-----|
A|-------------(6)-----|
E|-------------(4)-----|


                    A#m5 
 "make you fall, fall in love
e|---------------------------|
B|---------------------------|
G|---------------------------|
D|------------------(8)------|
A|------------------(8)------|
E|------------------(6)------|


It`s the same for the rest of the song. 


Comments:jcrp_21@hotmail.com
comments
print report bad tab
I want to post or [tab]
guest
You may want to rate the tab now too:
select rating
Please do not post tabs as comments. Select "correction" instead!