Oops, an error
Loading. Please wait.

Promiscuous Tab

version 1
version 1

Whole song

21,158 views 21 this week
6 commentsread comments
1 2 3 4 5
accurate
x 11
add to favorites
launch autoscroll
font size
0
reset
how to read this tab
guitar tuner
Autoscroll
slow
fast
+/-
esc
set tempo
stop
Help us to improve Ultimate-Guitar.com Take our survey!
×
Author
Difficulty
novice
Promiscuous
By Nelly Furtado

The Verses:  Repeat like a billion times

e:---------1----------------------------------------|
B:-2---2------4-4-2---------------------------------|
G:---3---3------------------------------------------|
D:--------------------------------------------------|
A:--------------------------------------------------|
E:--------------------------------------------------|

The Chorus: repeated 4 times

e:---------------------------------------------|
B:---------------------------------------------|
G:---------------------------------------------|
D:---------------------------------------------|
A:-----6---9-8---4-----------------------------|
E:-6---------------6---------------------------|


I prefer to play the verses with chords

Bbm              Ebm
Promiscuous girl
                     Gb Bbm
Wherever you are
          Bbm Gb
I’m all alone
                           Bbm
And it's you that I want

                   Ebm
Promiscuous boy
                     Gb Bbm
You already know
                   Bbm Gb
That I’m all yours
                         Bbm
What you waiting for?

                   Ebm
Promiscuous girl
                     Gb Bbm
You're teasing me
                       Bbm Gb
You know what I want
                             Bbm
And I got what you need

Promiscuous boy
Let's get to the point
Cause we're on a roll
You ready?
Suggest correction
comments
print report bad tab
6 comments total. Showing first comments.
0 reply
ionlylookscary 20 wrote on August 20 2006, 06:49 pm

nice i havent played it yet but i bet its good... im so happy it was here cos i didnt htink anyone would actually tab it! =]

+1 reply
ay_kant_spel 62 wrote on August 22 2006, 03:23 pm

well actually i fudged it up i forgot one finger somehow. i always do stupid shit like that. i'm a noob at this. its kinda obvious to fix that mistake tho

e:---------1-----------------------------------|
B:-2---2-----4-4-2-----------------------------|
G:---3---3-------------------------------------|
D:---------------------------------------------|
A:---------------------------------------------|
E:---------------------------------------------|

0 reply
ionlylookscary 20 wrote on August 23 2006, 02:50 pm

ok coo!
i never woulda noticed!

guest
You may want to rate the tab now too:
select rating
Wanna post a correction for this tab? Suggest correction