Oops, an error
Loading. Please wait.

Say It Right Live Tab

1,654 views 1 this week
no commentswrite comment
1 2 3 4 5
please rate
add to favorites
launch autoscroll
font size
0
reset
how to read this tab
guitar tuner
Autoscroll
slow
fast
+/-
esc
set tempo
stop
Help us to improve Ultimate-Guitar.com Take our survey!
×
Author
Difficulty
intermediate
-------------------------------------------------------------------------------
                Say It Right (Live Session) Solo - Nelly Furtado
-------------------------------------------------------------------------------
Tabbed by: Ethan Belmonte


Tuning: Standard

e|---------------------------------------------------------------------------|
B|---9---------9--------9---------8-------8-----8~------6------6-----6~------|
G|-----10--------10-------10--------8-------8-------------6------6-----------|
D|--------10--------10----------------8-------8-------------6------6---------|
A|---------------------------------------------------------------------------|
E|---------------------------------------------------------------------------|
                        .  .
e|-----------------------------------------------------------------|---------|
B|-----------------9------9-8-6b--6-8-----8-----8~--6-----6-----6~-|---------|
G|--6p5----6p5-------10---------------8-----8---------6-----6------|-6p5-----|
D|------8------8~-------10--------------8-----8---------6-----6----|-----8---|
A|-----------------------------------------------------------------|---------|
E|-----------------------------------------------------------------|---------|
                                                                        X2
e|---------------------------------------------------------------------------|
B|----9-8-6-4/6b---8/9-8-6-------------------88-99-11-11-9~-8~--------9-11---|
G|-------------------------8-8b----8-8h10-10------------------10~------------|
D|------------------------------10-------------------------------------------|
A|---------------------------------------------------------------------------|
E|---------------------------------------------------------------------------|

e|-/16-15----15/16/15-16/15/13-11----11/13-11-11~-9-9-8h9-8-6---6~-----------|
B|--------16----------------------13--------------------------9--------------|
G|---------------------------------------------------------------------------|
D|---------------------------------------------------------------------------|
A|---------------------------------------------------------------------------|
E|---------------------------------------------------------------------------|

e|---------------------------------------------------------------------------|
B|---9-6~-8h9-9~-8~-6~----------6-6-8-8-9-9-11-11--9~-11-9-8-----------------|
G|-----------------------8-5-8-----------------------------------------------|
D|---------------------------------------------------------------------------|
A|---------------------------------------------------------------------------|
E|---------------------------------------------------------------------------|

  then the solo fades into something inaudible (well, to me), so just play around with 
riffs and fade out with the music.

peace. Storm!

| /  slide up
| \  slide down
| h  hammer-on
| p  pull-off
| ~  vibrato
| +  harmonic
| x  Mute note
===============================================================================
Suggest correction
Give kudos to tab author, rate the tab!
1 2 3 4 5
comments
print report bad tab
guest
You may want to rate the tab now too:
select rating
Please do not post tabs as comments. Select "correction" instead!