Oops, an error
Loading. Please wait.

Afterlife Tab

version 2
version 2

Whole song

374 views 1 this week
no commentswrite comment
1 2 3 4 5
please rate
add to favorites
launch autoscroll
font size
0
reset
how to read this tab
guitar tuner
Autoscroll
slow
fast
+/-
esc
set tempo
stop
Help us to improve Ultimate-Guitar.com Take our survey!
×
Author
Difficulty
novice
Song: Afterlife
Band: Nemesea
Album: The Quiet Resistance
Tuning: [EADGBe]




Intro[0:00-0:25]

-------------------------------|
-------------------------------|
-------------------------------|
-4-4-4--4-4-4--4-4-4--7-7-7-7--|[x2]
-2-2-2--2-2-2--2-2-2-----------|
-2-2-2--2-2-2--2-2-2--5-5-5-5--|

-------------------------------|
-------------------------------|
-------------------------------|
-5-5-5--5-5-5--5-5-5--7-7-7-7--|[x2]
-5-5-5--5-5-5--5-5-5-----------|
-3-3-3--3-3-3--3-3-3--5-5-5-5--|



Chorus[0:29-0:54]
-------------------------------------------------|
-------------------------------------------------|
-------------------------------------------------|
-4-4-4--4-4-4--4-4-4--4-4--7-7-7-7--7-7-7-7------|
-2-2-2--2-2-2--2-2-2--2-2--5-5-5-5--7-7-7-7------|
-2-2-2--2-2-2--2-2-2--2-2--5-5-5-5--5-5-5-5------|

-------------------------------------------------|
-------------------------------------------------|
-------------------------------------------------|
-4-4-4--4-4-4--4-4-4--4-4--7-7-7-7--4-4-4-4------|
-2-2-2--2-2-2--2-2-2--2-2--7-7-7-7--4-4-4-4------|
-2-2-2--2-2-2--2-2-2--2-2--5-5-5-5--2-2-2-2------|

-------------------------------------------------|
-------------------------------------------------|
-------------------------------------------------|
-4-4-4--4-4-4--4-4-4--4-4--7-7-7-7--7-7-7-7------|
-2-2-2--2-2-2--2-2-2--2-2--5-5-5-5--7-7-7-7------|
-2-2-2--2-2-2--2-2-2--2-2--5-5-5-5--5-5-5-5------|

-----------------------------------------|
-----------------------------------------|
-----------------------------------------|
-5-5-5-5-5-5-5-5--7-7-7-7-7-7-7-7--------|
-5-5-5-5-5-5-5-5--7-7-7-7-7-7-7-7--------|
-3-3-3-3-3-3-3-3--5-5-5-5-5-5-5-5--------|

[0:54-1:01]
-------------------------------|
-------------------------------|
-------------------------------|
-4-4-4--4-4-4--4-4-4--7-7-7-7--|
-2-2-2--2-2-2--2-2-2-----------|
-2-2-2--2-2-2--2-2-2--5-5-5-5--|


Repeat Intro:  [1:01-1:26]
Repeat chorus: [1:26-2:05]

Bridge: [2:05-2:30]

-------------------------------------|
-------------------------------------|
-------------------------------------|
-2~--4~--9~--7~--2~--4~--5~--7~------|
-2~--4~--9~--7~--2~--4~--5~--7~------|
-0~--2~--7~--5~--0~--2~--3~--5~------|


Chorus:[2:30-3:02]
-------------------------------------------------|
-------------------------------------------------|
-------------------------------------------------|
---------------------------7-7-7-7--7-7-7-7------|
---------------------------5-5-5-5--7-7-7-7------|
---------------------------5-5-5-5--5-5-5-5------|

-------------------------------------------------|
-------------------------------------------------|
-------------------------------------------------|
-4-4-4--4-4-4--4-4-4--4-4--7-7-7-7--4-4-4-4------|
-2-2-2--2-2-2--2-2-2--2-2--7-7-7-7--4-4-4-4------|
-2-2-2--2-2-2--2-2-2--2-2--5-5-5-5--2-2-2-2------|

-------------------------------------------------|
-------------------------------------------------|
-------------------------------------------------|
-4-4-4--4-4-4--4-4-4--4-4--7-7-7-7--7-7-7-7------|
-2-2-2--2-2-2--2-2-2--2-2--5-5-5-5--7-7-7-7------|
-2-2-2--2-2-2--2-2-2--2-2--5-5-5-5--5-5-5-5------|

-----------------------------------------|
-----------------------------------------|
-----------------------------------------|
-5-5-5-5-5-5-5-5--7-7-7-7-7-7-7-7--------|
-5-5-5-5-5-5-5-5--7-7-7-7-7-7-7-7--------|
-3-3-3-3-3-3-3-3--5-5-5-5-5-5-5-5--------|

-----------------------------------------|
-----------------------------------------|
-----------------------------------------|
-5-5-5-5-5-5-5-5--7-7-7-7-7-7-7-7--------|
-5-5-5-5-5-5-5-5--7-7-7-7-7-7-7-7--------|
-3-3-3-3-3-3-3-3--5-5-5-5-5-5-5-5--------|

-------------------------------|
-------------------------------|
-------------------------------|
-4-4-4--4-4-4--4-4-4--7-7-7-7--|[x2]
-2-2-2--2-2-2--2-2-2-----------|
-2-2-2--2-2-2--2-2-2--5-5-5-5--|
Suggest correction
What's this?
You can suggest a correction to this tab. Community and Mods will review your correction and vote to approve or reject it.
comments
We did not receive enough feedback on this tab! Please rate:
print report bad tab
1 2 3 4 5
guest
You may want to rate the tab now too:
select rating
Please do not post tabs as comments. Select "correction" instead!