Oops, an error
Loading. Please wait.

Chakithaya Tab

version 1
version 1

Whole song

Interactive

13,000 views 24 this week
3 commentsread comments
1 2 3 4 5
1 last vote to show rating
add to favorites
launch autoscroll
font size
0
reset
how to read this tab
guitar tuner
Autoscroll
slow
fast
+/-
esc
set tempo
stop
Help us to improve Ultimate-Guitar.com Take our survey!
×
Author
Difficulty
Tuning
intermediate
D# G# C# F# A# D#
-------------------------------------------------------------------------------
                             Chakithaya - Nemesis
-------------------------------------------------------------------------------
Tabbed by: Vidula
Email: vidula@live.com

Tuning: Eb (Half step down


Intro (Rythm):
   E5                  D5  C5  D5  B5  C5  B5  A5   G5  E5      E5
eb|--------------------------------------------------------------------------|
Bb|---------------------3----------------------------------------------------|
Gb|---------------------2---5---7---4---5---4---2----------------------------|
Db|-2-(2)(2)--2-(2)(2)--0---5---7---4---5---4---2---5---2(2)(2)---2(2)(2)----|
Ab|-2-(2)(2)--2-(2)(2)------3---5---2---3---2---0---5---2(2)(2)---2(2)(2)----|
Eb|-0-(0)(0)--0-(0)(0)------------------------------3---0(0)(0)---0(0)(0)----| x2


Verse1 (Rythm):
   E5                  D5  C5  D5  B5  C5  B5  A5   G5  E5      E5
eb|--------------------------------------------------------------------------|
Bb|---------------------3----------------------------------------------------|
Gb|---------------------2---5---7---4---5---4---2----------------------------|
Db|-2-(2)(2)--2-(2)(2)--0---5---7---4---5---4---2---5---2(2)(2)---2(2)(2)----|
Ab|-2-(2)(2)--2-(2)(2)------3---5---2---3---2---0---5---2(2)(2)---2(2)(2)----|
Eb|-0-(0)(0)--0-(0)(0)------------------------------3---0(0)(0)---0(0)(0)----| x4

E5      D5   C5   D5    B5  C5 B5 A5 G5 E5
Seyavak vath hada thula maa novana   lese,
??????? ???    ??   ???   ??   ????   ????

E5      D5   C5   D5    B5  C5 B5 A5 G5 E5
Maayavak vee oba sithuwam makuwe     kese,
???????   ??   ??  ???????    ??????      ????

E5      D5   C5   D5    B5  C5 B5 A5 G5 E5
Seyavak vath hada thula maa novana   lese,
??????? ???    ??   ???   ??   ????   ????

E5      D5   C5   D5    B5  C5 B5 A5 G5 E5
Maayavak vee oba sithuwam makuwe     kese,
???????   ??   ??  ???????    ??????      ????


Interlude (Lead):
    C              D             Em
eb|-------0--------------2------------0---0---3---2------|
Bb|-----1---1----------3---3--------0---0---0---0---0----|
Gb|---0-------0------2-------2----0----------------------|
Db|-------------2--0===========0-------------------------|
Ab|-3========--------------------------------------------|
Eb|------------------------------0-----------------------|

    C              D             Em
eb|-------0--------------2------------0-----0------------|
Bb|-----1---1----------3---3--------0-----0--------------|
Gb|---0-------0------2-------2----0-----0----------------|
Db|-------------2--0===========0-------------------------|
Ab|-3========--------------------------------------------|
Eb|------------------------------0-----------------------|

Interlude (Rythm):

C          D            Em
Chakithaya vath nathida navathuyee,
?????      ???   ?????    ???????
C          D          Em
Mathakaya kelesadoo Miyadunee,
????     ???????  ????????

Chorus:

Em
Hada davunaa,
??   ??????
C        D
Kandulee gilunaa,
?????    ??????
C
Nethu nivunaa,
????  ??????
D      B
Andure ethunaa,
?????   ?????
        Em
Whoah!, Nivunaa,
??     ??????
C     D
Lokee Davunaa,
???? ??????
C           D       Em
Oba nimavuu sihinee bindunaa.
??  ?????    ??????   ??????  

Verse 2(Rythm):

   E5                  D5  C5  D5  B5  C5  B5  A5   G5  E5      E5
eb|--------------------------------------------------------------------------|
Bb|---------------------3----------------------------------------------------|
Gb|---------------------2---5---7---4---5---4---2----------------------------|
Db|-2-(2)(2)--2-(2)(2)--0---5---7---4---5---4---2---5---2(2)(2)---2(2)(2)----|
Ab|-2-(2)(2)--2-(2)(2)------3---5---2---3---2---0---5---2(2)(2)---2(2)(2)----|
Eb|-0-(0)(0)--0-(0)(0)------------------------------3---0(0)(0)---0(0)(0)----| x4

E5          D5   C5   D5    B5  C5 B5 A5 G5 E5
Kandulallak vath netha thula maa norandena se.
??????????    ???  ???   ???   ??   ???????  ??
E5          D5   C5   D5  B5  C5 B5 A5 G5 E5
Magey lova gini davenaa   yali nonivena se.
????  ??? ????   ??????    ???   ??????? ??
E5          D5   C5   D5    B5  C5 B5 A5 G5 E5
Kandulallak vath netha thula maa norandena se.
??????????    ???  ???   ???   ??   ???????  ??
E5          D5   C5   D5  B5  C5 B5 A5 G5 E5
Magey lova gini davenaa   yali nonivena se.
????  ??? ????   ??????    ???   ??????? ??
Interlude (Lead):
    C              D             Em
eb|-------0--------------2------------0---0---3---2------|
Bb|-----1---1----------3---3--------0---0---0---0---0----|
Gb|---0-------0------2-------2----0----------------------|
Db|-------------2--0===========0-------------------------|
Ab|-3========--------------------------------------------|
Eb|------------------------------0-----------------------|

    C              D             Em
eb|-------0--------------2------------0-----0------------|
Bb|-----1---1----------3---3--------0-----0--------------|
Gb|---0-------0------2-------2----0-----0----------------|
Db|-------------2--0===========0-------------------------|
Ab|-3========--------------------------------------------|
Eb|------------------------------0-----------------------|

Interlude (Rythm):

C          D            Em
Chakithaya vath nathida navathuyee,
?????      ???   ?????    ???????
C          D          Em
Mathakaya kelesadoo Miyadunee,
????     ???????  ????????

Chorus:

Em
Hada davunaa,
??   ??????
C        D
Kandulee gilunaa,
?????    ??????
C
Nethu nivunaa,
????  ??????
D      B
Andure ethunaa,
?????   ?????
        Em
Whoah!, Nivunaa,
??     ??????
C     D
Lokee Davunaa,
???? ??????
C           D       Em
Oba nimavuu sihinee bindunaa.
??  ?????    ??????   ??????  

Solo: improvise...


Bridge (Rythm):

Em          C
Nimeshayak
????????
          D
viya apey lookey
???   ???  ????
C              D            Em
samanalayin se piyambuuwath edaa
????????    ?? ????????       ???
        Em7*
chapala hangum
???     ??????
    Am7 D
obe maa davuyee
??? ??  ??????
C            D       Em
maayavee naa ma yali bandenne
??????    ??  ?? ???   ?????????
C        D           Asus2
maayavee naa ma yali bandenne
??????    ??  ?? ???   ?????????

Chorus + Outro:

Em
Hada davunaa,
??   ??????
C        D
Kandulee gilunaa,
?????    ??????
C
Nethu nivunaa,
????  ??????
D      B
Andure ethunaa,
?????   ?????
        Em
Whoah!, Nivunaa,
??     ??????
C     D
Lokee Davunaa,
???? ??????
C           D       Em
Oba nimavuu sihinee bindunaa.
??  ?????    ??????   ??????  
Em
Hada davunaa,
??   ??????
C        D
Kandulee gilunaa,
?????    ??????
C
Nethu nivunaa,
????  ??????
D      B
Andure ethunaa,
?????   ?????
        Em
Whoah!, Nivunaa,
??     ??????
C     D
Lokee Davunaa,
???? ??????
C           D       Em
Oba nimavuu sihinee bindunaa.
??  ?????    ??????   ??????  
C           D       Em
Oba nimavuu sihinee bindunaa.
??  ?????    ??????   ??????  
C           D       Em
Oba nimavuu sihinee bindunaa.
??  ?????    ??????   ??????  
C           D       Em
Oba nimavuu sihinee bindunaa.
??  ?????    ??????   ??????  




************************************

| /   slide up
| \   slide down
| h   hammer-on
| p   pull-off
| ~   vibrato
| +   harmonic
| x   Mute note
| b   Bend
| pb  Pre-bend
| br  Bend release
| pbr Pre-bend release
| brb Bend release bend

************************************
Suggest correction
Give kudos to tab author, rate the tab!
1 2 3 4 5
comments
print report bad tab
3 comments total.
-1 reply
zhacker4ever 10 Dec 19, 2013 01:34 AM

SHOULD BE:

Intro (Rythm):

 E5                  D5  C5  D5  B5  C5  B5  A5   E5        E5
eb|---------------------0------------------------------------------------|
Bb|---------------------3------------------------------------------------|
Gb|---------------------2---5---7---4---5---4---2------------------------|
Db|-2-(2)(2)--2-(2)(2)------5---7---4---5---4---2---2(2)(2)---2(2)(2)----|
Ab|-2-(2)(2)--2-(2)(2)------3---5---2---3---2---0---2(2)(2)---2(2)(2)----|
Eb|-0-(0)(0)--0-(0)(0)------------------------------0(0)(0)---0(0)(0)----| x2

0 reply
vintageman 209 Jul 20, 2014 12:44 PM

Thanks. A bit late, but better late than never. Fixed the rest of the tab as well. If someone can transcribe the solo, I can surely append.

Also, this is based on one of their pre-release versions. Minor differences to be noted.

0 reply
alexmercher66 26 Sep 23, 2015 12:45 PM

Heres the solo of chakithaya

|-----------------------------------------------------------------------|
|------------------------------------------------------12--13--15-------|
|-------12-11-12-11------------/16-14-12-12h14-11----11--11--11--11-----|
|-13h14------------14---9-9-9-------------------------------------------|
|-----------------------7-7-7-------------------------------------------|
|-----------------------------------------------------------------------|

|-----------------------------------------------------------------------|
|--17-15-13-13----/19-17-15-15--/19-17-15-15--13h15-13h15p13--12-/10----|
|-----------------------------------------------------------------------|
|-----------------------------------------------------------------------|
|-----------------------------------------------------------------------|
|-----------------------------------------------------------------------|

tapping part
|--------------------------------------------------------------------------------------------------------|
|-10h12p10h12-t17p12p10--10h12p10h12p-t17p12p10----10h12p10h12p-t16p12p10--10h12p10h12-t16p12p10---------|
|--------------------------------------------------------------------------------------------------------|
|--------------------------------------------------------------------------------------------------------|
|--------------------------------------------------------------------------------------------------------|
|--------------------------------------------------------------------------------------------------------|

|---------------------------------------------------------------------------------------------|
|-10h12p10h12-t17p12p10--10h12p10h12-t17p12p10--10h12p10h12-t17p12p10--10h12p10h12-t17~-------|
|---------------------------------------------------------------------------------------------|
|---------------------------------------------------------------------------------------------|
|---------------------------------------------------------------------------------------------|
|---------------------------------------------------------------------------------------------|

|---------------------------------------------------------------------------------------------|
|---------------------------------------------------------------------------------------------|
|--12-11-12---------12p11h12--/14-12-11-11h12p11--9-------------------------------------------|
|----------14-12-10---------------------------------------------------------------------------|
|---------------------------------------------------------------------------------------------|
|---------------------------------------------------------------------------------------------|

t = tapping
h = hammer on
p = pull off
/ = slide up

guest
You may want to rate the tab now too:
select rating
Wanna post a correction for this tab? Suggest correction