Oops, an error
Loading. Please wait.

99 Luftballons bass

version 1
version 1

Whole song

Interactive

by Nena
44,259 views 117 this week
3 commentsread comments
1 2 3 4 5
x 11
add to favorites
×
Save as Personal and add changes to this tab that will be seen only by you. Learn more ›
×
You can save this tab as Personal to edit and correct it or add notes. All changes will be seen only by you. Learn more »
launch autoscroll
font size
0
reset
guitar tuner
edit
Autoscroll
slow
fast
+/-
esc
set tempo
stop
Author
[Intro]

when drums start:               
G|-----|----------------|----------------|
D|---2-|*-2----2------2-|--2----2------2*|(last time open E-string)
A|-----|*---4----4------|----4----4-----*|
E|-----|----------------|-----------0----|(x4)
                                  
G|----------------|-----------6-9\-|     |--------------------|
D|*---------------|---------------*|     |--------------------|
A|*---------------|---------------*|     |----------2-2-2-2-2-|
E|--------------0-|----------------|(x3) |--------------------|
                S             P P     
[Verse 1]

G|----------------------------------|----------------------------------|
D|*---------------------------------|---------------------------------*|
A|*---------------------------------|-0-0-0-0-0-0-0-0--2-2-2-2-2-2-2-2*|
E|-0-0-0-0-0-0-0-0--2-2-2-2-2-2-2-2-|----------------------------------|(x10)


[Bridge]

G|-----------|----------------|----------------|----------------|
D|-----------|--2----2------2-|--2----2------2-|--2----2--------|
A|-----------|----4----4------|----4----4------|----4----4------|
E|-----------|-----------0----|----------------|-----------0----|

                         (x2)
G|------------|-------6-9\-||------------|-------2-4--|------------------|
D|*-----------|-----------*||------------|------------|------------------|
A|*-----------|-----------*||------------|------------|--------2-2-2-2-2-|
E|----------0-|------------||----------0-|------------|------------------|
            S         P P              S         P P     


[Verse 2]

G|----------------------------------|----------------------------------|
D|*---------------------------------|---------------------------------*|
A|*---------------------------------|-0-0-0-0-0-0-0-0--2-2-2-2-2-2-2-2*|
E|-0-0-0-0-0-0-0-0--2-2-2-2-2-2-2-2-|----------------------------------|(x4)

G|----------------------------------|----------------------------------|
D|----------------------------------|-7-7-7-7-7-7-7-7--9-9-9-9-9-9-9-9-|
A|-7-7-7-7-7-7-7-7--9-9-9-9-9-9-9-9-|----------------------------------|
E|----------------------------------|----------------------------------|

G|-8h9-9-8h9-9-8h9-9-8h9-9-8h9-9-8h9-9-8h9-9-8h9-9-|-9-7-------------|
D|-------------------------------------------------|-----9-8-7-5-----|
A|-------------------------------------------------|-------------7-5-|
E|-------------------------------------------------|-----------------|

                        (x3)
G|-------------------------| |---------------4-4--4-4---|
D|*----2-----2-----2-----2*| |-----2-----2--------------|
A|*-----------------------*| |-------------2------------|
E|-0-0---0-0---0-0---0-0---| |-0-0---0-0--------------0-|

The outro is without bass, but when the lyrics end a low B is played. It’s
actually a low B-string but you could also play it at the second fret of the A-string.



************************************

| *  repeat
| \  Slide down
| P  Pop
| h  Hammer-on

************************************

            
            
Suggest correction
Creating personal tab
Creating personal tab
You can edit any tab online and save it as your Personal.

You can edit, replace or remove any tab part or add personal notes – all changes will be seen only by you.

Personal tabs can be accessed anytime from any device, even offline.
Learn more »
comments
print report bad tab
3 comments total.
-1 reply
sirpsyco5exy 31 Sep 11, 2009 07:48 AM

its not how its played... watch the vid.... KID!

+3 reply
Jordo141 483 Jun 15, 2011 01:57 PM

Above commenter is wrong.

Great job.

0 reply
Kaela1214 41 Apr 13, 2012 10:38 AM

they were just joking......

guest
You may want to rate the tab now too:
select rating
Wanna post a correction for this tab? Suggest correction