Oops, an error
Loading. Please wait.

Tuloy Pa Rin Tab

version 1
version 1

Solo

  • ver 1 new
    Because it was made by me "Future artist".
85 views 85 this week
no commentswrite comment
1 2 3 4 5
3 more votes to show rating
add to favorites
launch autoscroll
font size
0
reset
how to read this tab
guitar tuner
Autoscroll
slow
fast
+/-
esc
set tempo
stop
Help us to improve Ultimate-Guitar.com Take our survey!
×
Author
Difficulty
Tuning
Capo
intermediate
E A D G B E
2nd fret
About this tab version
Because it was made by me "Future artist". Was this info helpful? Yes No
Email: cossmoss0414@gmail.com/dan_gabriel14@yahoo.com
Instagram: bewithgabb_ 


NOTE: Use capo(2nd fret)
    : The "pause" tsempohan niyo lang
    : x - tap

[Intro] G - C - G


[Verse] 1

e|-------------------------------------------------|-----------------------------------------------------|
B|----------0--x--------------------0--x--1--------|-0----------0---------------------------0------------|
G|-----0h2-----x---------------0h2-----x-----------|----0--0h2-----(2)--2p0-------------0h2---(2)--2p0---|
D|--0----------x--0(pause)--0----------x---(pause)-|---------------(0)------(pause)--0--------(0)--------|
A|-------------------------------------------------|-------2-------(2)------------------2-----(2)--------|
E|-----3-------x---------------3-------x--3--------|-----------------------------------------------------|

e|-----------------------------------------------------|---------0--(0)----------------------------------|
B|-------------0--x------------x--------------0(pause)-|---0--0-----(3)-----3--x--0--3p0--x--------------|
G|--------0h2-----x------------x-----2-----2-----------|------------(0)--------x----------x--2--(0)------|
D|--0--0----------x--0(pause)--x--0-----0--------------|------------(0)--------x----------x-----(0)------|
A|-----------------------------------------------------|---------2-------2-----x-----2----x--2--(2)------|
E|--------3-------x------------x-----3-----------------|-------------------------------------------------|


e|---------------------------------------------|---------------------------------------------------------|
B|-------------------------0--1p0--------------|--3-----(0)-----------(0)--------------1p0---------------|
G|-----0--(0)-----0--x---------(0)--2-----x----|--------(0)-----2-----(0)-----0--x----------2p0----------|
D|--------(2)--------x--2------(0)--------x--0-|-----2--(2)--2--------(2)--------x---------(0)-----------|
A|--3-----(3)--3-----x-----2---(2)-----2--x----|--0----------------0-------2-----x--2------(2)-----------|
E|---------------------------------------------|---------------------------------------------------------|

e|-------------------------------------------|-----------------------------------------------------------|
B|-------------------------0--1p0------------|-------------------0--0-----0--------------------0--3------|
G|-----0--(0)-----0--x---------(0)--2-----x--|----------------x--------2-----2(2)--2--------2-----2------|
D|--------(2)--2-----x--0------(0)--------x--|-0--2--(pause)--x---------------(2)--------2--------0------|
A|--3-----(3)--------x-----2---(2)-----2--x--|----3-----------x-----------0---(0)-----0------------------|
E|-------------------------------------------|-----------------------------------------------------------|


[Chorus]

e|-----0-----------0----------------------------|--------------0-------------------|
B|--------3--3--0--1--3--(3)--3--------(1)--3---|-----3--x--------3--(3)-----------|
G|--2--------2-----0-----(0)--------0--(0)------|--------x--0--------(0)-----------|
D|-----------------------(2)-----2-----(2)------|--------x-----------(0)-----------|
A|-----------------3----------------------------|--2-----x-------------------------|
E|----------------------------------------------|----------------------------------|

e|------------------------------------------|------0-------------0-----------------|
B|--0---1p0--(0)--------0--x-----------(0)--|---------3--(3)--0--1--3--(3)---------|
G|------2----(2)--2--------x--0-----0--(0)--|---0--------(0)-----0-----(0)---------|
D|-----------(2)-----------------------(2)--|------------(2)-----------(2)---------|
A|------0------------0-----x-----2----------|--------------------3-----------------|
E|------------------------------------------|--------------------------------------|

e|--------------------------------------------|------------------------0--------2--|
B|--3--------(1)--3-----0--(0)--0--1-----(0)--|---3-----------3(pause)----3-----3--|
G|-----------(0)-----------(0)-----------(0)--|------------2-----------------2--2--|
D|--------2--(2)-----------(0)--------0--(0)--|---------2-----------------------0--|
A|-----3-------------2-------------2----------|------0-----------------------------|
E|--------------------------------------------|------------------------------------|


I hope you will like this arrangement of mine. Just leave a comment if you have
questions and suggestions.

Thank you!

************************************

| x   Dead note
| (n) Ghost note
| h   Hammer-on
| p   Pull-off

************************************
Suggest correction
Give kudos to tab author, rate the tab!
1 2 3 4 5
comments
print report bad tab
guest
You may want to rate the tab now too:
select rating
Wanna post a correction for this tab? Suggest correction