Oops, an error
Loading. Please wait.

Tuloy Pa Rin Acoustic tab

version 1
version 1

Whole song

  • Fingerstyle version of the original song :).
32,663 views 276 this week
5 commentsread comments
1 2 3 4 5
x 7
add to favorites
×
Save as Personal and add changes to this tab that will be seen only by you. Learn more ›
×
You can save this tab as Personal to edit and correct it or add notes. All changes will be seen only by you. Learn more »
launch autoscroll
font size
0
reset
how to read this tab
guitar tuner
edit
Autoscroll
slow
fast
+/-
esc
set tempo
stop
Video: https://www.youtube.com/watch?v=lnY3Cl1BBpw


[Intro]

    G                 C               Dadd4add9 D
e|-----------------|-----------------|--------0-2------|
B|--------3-----0--|-0h1-----3-----1-|--3/5-----3------|
G|------0-----0-0--|--0----0-----0-0-|------0---2------|
D|----0-------0----|-----2-------2---|----------0------|
A|-----------------|--3--------------|--3/5------------|
E|--3--------------|-----------------|-----------------|


[Verse]

    G                Cadd9           Em7               Dadd4add9
e|--3-------------|--3-------------|----------------|-----------------|
B|--3-------------|--3---0---------|--------3-------|--------3--------|
G|--0-------------|--0-------------|--------0-------|----0---0--------|
D|----------------|----------------|------2---------|------4----------|
A|----------------|--3-------------|----2-----------|3/5--------------|
E|--3-------------|----------------|--0-------------|-----------------|
 Inaamin ko na kay tagal pa         bago         nakalimutan ito

    Em7              Dsus4/F#         G        G/B     Cadd9
e|--------3-------|--------0-------|----------------|--------3--------|
B|--------3-------|--------3-------|--3--------3----|--3---------1----|
G|--------0-------|--2---2---------|--0--------0----|--0--------------|
D|------2---------|--0-------------|--0--------0----|--2--------------|
A|----2-----------|----------------|-----------2----|--3--------------|
E|--0-------------|--2-------------|--3-------------|-----------------|
      Muntik nang  nasanay ako    sa aking pag-i      isa

    Em7              Dsus4/F#         C                Dadd4add9       D
e|--0-------------|---------0------|----------------|--------------3---2----|
B|--3-------------|--3-------------|--------1-------|--------3------------3-|
G|--0-------------|--2-------------|------0---------|------0-----0---0------|
D|----------------|--0-------------|----2-----------|----4-------------0----|
A|----------------|----------------|--3-------------|--5--------------------|
E|--0-------------|--2-------------|----------------|-----------------------|
      At kaya nang  iwanan ang      bakas       ng   kahapon ko


[Chorus] 

(Strum)
                 G             D/F#
e|---------------3-------------2-----|
B|---------------3-------------3-----|
G|---------------0-------------2-----|
D|---------------0-------------0-----|
A|---------------2-------------0-----|
E|---------------3-------------2-----|
Tuloy pa rin ang awit ng buhay ko

                Em7            G
e|---------------3-------------3-----|
B|---------------3-------------3-----|
G|---------------0-------------0-----|
D|---------------2-------------0-----|
A|---------------2-------------2-----|
E|---------------0-------------3-----|
Nagbago man ang himig ng puso mo

              Cadd9              G
e|------------3------------------3---|
B|------------3------------------3---|
G|------------0------------------0---|
D|------------2------------------0---|
A|------------3------------------2---|
E|-------------------------------3---|
Handa akong hamunin ang aking mundo


                 Dadd4add12
e|---------------5-------------------|
B|---------------3-------------------|
G|---------------0-------------------|
D|---------------4-------------------|
A|---------------5-------------------|
E|-----------------------------------|
'Pagkat tuloy pa rin


[Outro]
                    G
e|------------------3--|
B|--------0---3/5---3--|
G|--0---2-----0-----0--|
D|------------------0--|
A|------------------2--|
E|------------------3--|



************************************

| h    Hammer-on
| /    Slide up

************************************

            
            
Suggest correction
Creating personal tab
Creating personal tab
You can edit any tab online and save it as your Personal.

You can edit, replace or remove any tab part or add personal notes – all changes will be seen only by you.

Personal tabs can be accessed anytime from any device, even offline.
Learn more »
comments
print report bad tab
5 comments total. Showing first comments.
0 reply
bayonnetah 10 Jul 08, 2016 04:41 AM, edited at 08:42 am

missing some notes in the intro part(I think), but thank you very much!

0 reply
bayonnetah 10 Jul 08, 2016 04:44 AM

minor mistake, Cadd9 should be C at the "bakas" part

0 reply
fanfare 61 Aug 02, 2016 07:28 PM

Ok, I looked at all the other versions, and noted mistakes... and most were given 4. stars. This is the only version that is correct, and nobody rated it? Plus tab? wow. Anyway, allow me to be the first to thank you.

guest
You may want to rate the tab now too:
select rating
Wanna post a correction for this tab? Suggest correction